  0
SECTION
  2
HEADER
  9
$ACADVER
  1
AC1014
  9
$ACADMAINTVER
 70
     0
  9
$DWGCODEPAGE
  3
ANSI_1252
  9
$INSBASE
 10
0.0
 20
0.0
 30
0.0
  9
$EXTMIN
 10
-0.099602
 20
-0.064448
 30
-0.001526
  9
$EXTMAX
 10
3264.099617
 20
2112.064458
 30
0.0
  9
$LIMMIN
 10
0.0
 20
0.0
  9
$LIMMAX
 10
3264.0
 20
2112.0
  9
$ORTHOMODE
 70
     1
  9
$REGENMODE
 70
     0
  9
$FILLMODE
 70
     1
  9
$QTEXTMODE
 70
     0
  9
$MIRRTEXT
 70
     0
  9
$DRAGMODE
 70
     2
  9
$LTSCALE
 40
48.0
  9
$OSMODE
 70
     1
  9
$ATTMODE
 70
     1
  9
$TEXTSIZE
 40
12.0
  9
$TRACEWID
 40
0.05
  9
$TEXTSTYLE
  7
STANDARD
  9
$CLAYER
  8
AREA
  9
$CELTYPE
  6
BYLAYER
  9
$CECOLOR
 62
   256
  9
$CELTSCALE
 40
1.0
  9
$DELOBJ
 70
     1
  9
$DISPSILH
 70
     0
  9
$DIMSCALE
 40
96.0
  9
$DIMASZ
 40
0.12
  9
$DIMEXO
 40
0.0625
  9
$DIMDLI
 40
0.38
  9
$DIMRND
 40
0.0
  9
$DIMDLE
 40
0.0
  9
$DIMEXE
 40
0.18
  9
$DIMTP
 40
0.0
  9
$DIMTM
 40
0.0
  9
$DIMTXT
 40
0.1
  9
$DIMCEN
 40
0.09
  9
$DIMTSZ
 40
0.0
  9
$DIMTOL
 70
     0
  9
$DIMLIM
 70
     0
  9
$DIMTIH
 70
     1
  9
$DIMTOH
 70
     1
  9
$DIMSE1
 70
     0
  9
$DIMSE2
 70
     0
  9
$DIMTAD
 70
     0
  9
$DIMZIN
 70
     0
  9
$DIMBLK
  1

  9
$DIMASO
 70
     1
  9
$DIMSHO
 70
     1
  9
$DIMPOST
  1

  9
$DIMAPOST
  1

  9
$DIMALT
 70
     0
  9
$DIMALTD
 70
     2
  9
$DIMALTF
 40
25.4
  9
$DIMLFAC
 40
1.0
  9
$DIMTOFL
 70
     0
  9
$DIMTVP
 40
0.0
  9
$DIMTIX
 70
     0
  9
$DIMSOXD
 70
     0
  9
$DIMSAH
 70
     0
  9
$DIMBLK1
  1

  9
$DIMBLK2
  1

  9
$DIMSTYLE
  2
STANDARD
  9
$DIMCLRD
 70
   256
  9
$DIMCLRE
 70
   256
  9
$DIMCLRT
 70
   256
  9
$DIMTFAC
 40
1.0
  9
$DIMGAP
 40
0.09
  9
$DIMJUST
 70
     0
  9
$DIMSD1
 70
     0
  9
$DIMSD2
 70
     0
  9
$DIMTOLJ
 70
     1
  9
$DIMTZIN
 70
     0
  9
$DIMALTZ
 70
     0
  9
$DIMALTTZ
 70
     0
  9
$DIMFIT
 70
     3
  9
$DIMUPT
 70
     0
  9
$DIMUNIT
 70
     2
  9
$DIMDEC
 70
     4
  9
$DIMTDEC
 70
     4
  9
$DIMALTU
 70
     2
  9
$DIMALTTD
 70
     2
  9
$DIMTXSTY
  7
STANDARD
  9
$DIMAUNIT
 70
     0
  9
$LUNITS
 70
     4
  9
$LUPREC
 70
     4
  9
$SKETCHINC
 40
0.1
  9
$FILLETRAD
 40
0.0
  9
$AUNITS
 70
     0
  9
$AUPREC
 70
     4
  9
$MENU
  1
C:/ACAD/SUPPORT/ACAD
  9
$ELEVATION
 40
0.0
  9
$PELEVATION
 40
0.0
  9
$THICKNESS
 40
0.0
  9
$LIMCHECK
 70
     0
  9
$BLIPMODE
 70
     0
  9
$CHAMFERA
 40
0.0
  9
$CHAMFERB
 40
0.0
  9
$CHAMFERC
 40
0.0
  9
$CHAMFERD
 40
0.0
  9
$SKPOLY
 70
     0
  9
$TDCREATE
 40
2449583.601043750
  9
$TDUPDATE
 40
2450514.717904745
  9
$TDINDWG
 40
0.2290138889
  9
$TDUSRTIMER
 40
0.2290138889
  9
$USRTIMER
 70
     1
  9
$ANGBASE
 50
0.0
  9
$ANGDIR
 70
     0
  9
$PDMODE
 70
     0
  9
$PDSIZE
 40
0.0
  9
$PLINEWID
 40
0.0
  9
$COORDS
 70
     1
  9
$SPLFRAME
 70
     0
  9
$SPLINETYPE
 70
     6
  9
$SPLINESEGS
 70
     8
  9
$ATTDIA
 70
     0
  9
$ATTREQ
 70
     1
  9
$HANDLING
 70
     1
  9
$HANDSEED
  5
6D9
  9
$SURFTAB1
 70
     6
  9
$SURFTAB2
 70
     6
  9
$SURFTYPE
 70
     6
  9
$SURFU
 70
     6
  9
$SURFV
 70
     6
  9
$UCSNAME
  2

  9
$UCSORG
 10
0.0
 20
0.0
 30
0.0
  9
$UCSXDIR
 10
1.0
 20
0.0
 30
0.0
  9
$UCSYDIR
 10
0.0
 20
1.0
 30
0.0
  9
$PUCSNAME
  2

  9
$PUCSORG
 10
0.0
 20
0.0
 30
0.0
  9
$PUCSXDIR
 10
1.0
 20
0.0
 30
0.0
  9
$PUCSYDIR
 10
0.0
 20
1.0
 30
0.0
  9
$USERI1
 70
     0
  9
$USERI2
 70
     0
  9
$USERI3
 70
     1
  9
$USERI4
 70
     0
  9
$USERI5
 70
     0
  9
$USERR1
 40
0.0
  9
$USERR2
 40
0.0
  9
$USERR3
 40
96.0
  9
$USERR4
 40
0.0
  9
$USERR5
 40
0.0
  9
$WORLDVIEW
 70
     1
  9
$SHADEDGE
 70
     3
  9
$SHADEDIF
 70
    70
  9
$TILEMODE
 70
     1
  9
$MAXACTVP
 70
    16
  9
$PINSBASE
 10
0.0
 20
0.0
 30
0.0
  9
$PLIMCHECK
 70
     0
  9
$PEXTMIN
 10
1.000000E+20
 20
1.000000E+20
 30
1.000000E+20
  9
$PEXTMAX
 10
-1.000000E+20
 20
-1.000000E+20
 30
-1.000000E+20
  9
$PLIMMIN
 10
0.0
 20
0.0
  9
$PLIMMAX
 10
12.0
 20
9.0
  9
$UNITMODE
 70
     0
  9
$VISRETAIN
 70
     0
  9
$PLINEGEN
 70
     0
  9
$PSLTSCALE
 70
     1
  9
$TREEDEPTH
 70
  3020
  9
$PICKSTYLE
 70
     1
  9
$CMLSTYLE
  2
STANDARD
  9
$CMLJUST
 70
     0
  9
$CMLSCALE
 40
1.0
  9
$PROXYGRAPHICS
 70
     1
  9
$MEASUREMENT
 70
     0
  0
ENDSEC
  0
SECTION
  2
CLASSES
  0
CLASS
  1
LWPOLYLINE
  2
AcDbPolyline
  3
"AutoCAD"
 90
        0
280
     0
281
     1
  0
ENDSEC
  0
SECTION
  2
TABLES
  0
TABLE
  2
VPORT
  5
8
100
AcDbSymbolTable
 70
     1
  0
VPORT
  5
6D6
100
AcDbSymbolTableRecord
100
AcDbViewportTableRecord
  2
*ACTIVE
 70
     0
 10
0.0
 20
0.0
 11
1.0
 21
1.0
 12
2301.538462
 22
1056.0
 13
0.0
 23
0.0
 14
1.0
 24
1.0
 15
0.0
 25
0.0
 16
0.0
 26
0.0
 36
1.0
 17
0.0
 27
0.0
 37
0.0
 40
2112.0
 41
2.179487
 42
50.0
 43
0.0
 44
0.0
 50
0.0
 51
0.0
 71
     0
 72
  2000
 73
     1
 74
     0
 75
     0
 76
     0
 77
     0
 78
     0
  0
ENDTAB
  0
TABLE
  2
LTYPE
  5
5
100
AcDbSymbolTable
 70
     2
  0
LTYPE
  5
12
100
AcDbSymbolTableRecord
100
AcDbLinetypeTableRecord
  2
BYBLOCK
 70
     0
  3

 72
    65
 73
     0
 40
0.0
  0
LTYPE
  5
13
100
AcDbSymbolTableRecord
100
AcDbLinetypeTableRecord
  2
BYLAYER
 70
     0
  3

 72
    65
 73
     0
 40
0.0
  0
LTYPE
  5
14
100
AcDbSymbolTableRecord
100
AcDbLinetypeTableRecord
  2
CONTINUOUS
 70
     0
  3
Solid line
 72
    65
 73
     0
 40
0.0
  0
LTYPE
  5
1F
100
AcDbSymbolTableRecord
100
AcDbLinetypeTableRecord
  2
HIDDEN
 70
     0
  3
__ __ __ __ __ __ __ __ __ __ __ __ __ __ __ __
 72
    65
 73
     2
 40
0.375
 49
0.25
 74
     0
 49
-0.125
 74
     0
  0
ENDTAB
  0
TABLE
  2
LAYER
  5
2
100
AcDbSymbolTable
 70
     7
  0
LAYER
  5
F
100
AcDbSymbolTableRecord
100
AcDbLayerTableRecord
  2
0
 70
     0
 62
     7
  6
CONTINUOUS
  0
LAYER
  5
22
100
AcDbSymbolTableRecord
100
AcDbLayerTableRecord
  2
BORDER
 70
     0
 62
     7
  6
CONTINUOUS
  0
LAYER
  5
23
100
AcDbSymbolTableRecord
100
AcDbLayerTableRecord
  2
BORTXT
 70
     0
 62
     3
  6
CONTINUOUS
  0
LAYER
  5
24
100
AcDbSymbolTableRecord
100
AcDbLayerTableRecord
  2
XAT
 70
     0
 62
     3
  6
CONTINUOUS
  0
LAYER
  5
25
100
AcDbSymbolTableRecord
100
AcDbLayerTableRecord
  2
XARCH
 70
     0
 62
     5
  6
CONTINUOUS
  0
LAYER
  5
619
100
AcDbSymbolTableRecord
100
AcDbLayerTableRecord
  2
AREA
 70
     0
 62
     6
  6
CONTINUOUS
  0
LAYER
  5
61A
100
AcDbSymbolTableRecord
100
AcDbLayerTableRecord
  2
FIELDCHK
 70
     0
 62
     4
  6
CONTINUOUS
  0
ENDTAB
  0
TABLE
  2
STYLE
  5
3
100
AcDbSymbolTable
 70
     1
  0
STYLE
  5
10
100
AcDbSymbolTableRecord
100
AcDbTextStyleTableRecord
  2
STANDARD
 70
     0
 40
0.0
 41
1.0
 50
0.0
 71
     0
 42
12.0
  3
SIMPLEX.SHX
  4

  0
ENDTAB
  0
TABLE
  2
VIEW
  5
6
100
AcDbSymbolTable
 70
     0
  0
ENDTAB
  0
TABLE
  2
UCS
  5
7
100
AcDbSymbolTable
 70
     0
  0
ENDTAB
  0
TABLE
  2
APPID
  5
9
100
AcDbSymbolTable
 70
     1
  0
APPID
  5
11
100
AcDbSymbolTableRecord
100
AcDbRegAppTableRecord
  2
ACAD
 70
     0
  0
ENDTAB
  0
TABLE
  2
DIMSTYLE
  5
A
100
AcDbSymbolTable
 70
     1
  0
DIMSTYLE
105
577
100
AcDbSymbolTableRecord
100
AcDbDimStyleTableRecord
  2
STANDARD
 70
     0
  3

  4

  5

  6

  7

 40
1.0
 41
0.18
 42
0.0625
 43
0.38
 44
0.18
 45
0.0
 46
0.0
 47
0.0
 48
0.0
140
0.18
141
0.09
142
0.0
143
25.4
144
1.0
145
0.0
146
1.0
147
0.09
 71
     0
 72
     0
 73
     1
 74
     1
 75
     0
 76
     0
 77
     0
 78
     0
170
     0
171
     2
172
     0
173
     0
174
     0
175
     0
176
     0
177
     0
178
     0
270
     2
271
     4
272
     4
273
     2
274
     2
340
10
275
     0
280
     0
281
     0
282
     0
283
     1
284
     0
285
     0
286
     0
287
     3
288
     0
  0
ENDTAB
  0
TABLE
  2
BLOCK_RECORD
  5
1
100
AcDbSymbolTable
 70
     4
  0
BLOCK_RECORD
  5
18
100
AcDbSymbolTableRecord
100
AcDbBlockTableRecord
  2
*MODEL_SPACE
  0
BLOCK_RECORD
  5
15
100
AcDbSymbolTableRecord
100
AcDbBlockTableRecord
  2
*PAPER_SPACE
  0
BLOCK_RECORD
  5
1C
100
AcDbSymbolTableRecord
100
AcDbBlockTableRecord
  2
BORDER
  0
BLOCK_RECORD
  5
1D
100
AcDbSymbolTableRecord
100
AcDbBlockTableRecord
  2
TITLE-C
  0
BLOCK_RECORD
  5
1E
100
AcDbSymbolTableRecord
100
AcDbBlockTableRecord
  2
N
  0
BLOCK_RECORD
  5
57E
100
AcDbSymbolTableRecord
100
AcDbBlockTableRecord
  2
TTL__BLK
  0
ENDTAB
  0
ENDSEC
  0
SECTION
  2
BLOCKS
  0
BLOCK
  5
28
100
AcDbEntity
  8
0
100
AcDbBlockBegin
  2
*MODEL_SPACE
 70
     0
 10
0.0
 20
0.0
 30
0.0
  3
*MODEL_SPACE
  1

  0
ENDBLK
  5
29
100
AcDbEntity
  8
0
100
AcDbBlockEnd
  0
BLOCK
  5
26
100
AcDbEntity
 67
     1
  8
0
100
AcDbBlockBegin
  2
*PAPER_SPACE
 70
     0
 10
0.0
 20
0.0
 30
0.0
  3
*PAPER_SPACE
  1

  0
ENDBLK
  5
27
100
AcDbEntity
 67
     1
  8
0
100
AcDbBlockEnd
  0
BLOCK
  5
2A
100
AcDbEntity
  8
0
100
AcDbBlockBegin
  2
BORDER
 70
     0
 10
0.0
 20
0.0
 30
0.0
  3
BORDER
  1

  0
LINE
  5
2B
100
AcDbEntity
  8
BORDER
100
AcDbLine
 10
0.0
 20
0.0
 30
0.0
 11
1.0
 21
0.0
 31
0.0
  0
LINE
  5
2C
100
AcDbEntity
  8
BORDER
100
AcDbLine
 10
1.0
 20
0.0
 30
0.0
 11
1.0
 21
1.0
 31
0.0
  0
LINE
  5
2D
100
AcDbEntity
  8
BORDER
100
AcDbLine
 10
1.0
 20
1.0
 30
0.0
 11
0.0
 21
1.0
 31
0.0
  0
LINE
  5
2E
100
AcDbEntity
  8
BORDER
100
AcDbLine
 10
0.0
 20
1.0
 30
0.0
 11
0.0
 21
0.0
 31
0.0
  0
ENDBLK
  5
2F
100
AcDbEntity
  8
0
100
AcDbBlockEnd
  0
BLOCK
  5
30
100
AcDbEntity
  8
0
100
AcDbBlockBegin
  2
TITLE-C
 70
     2
 10
0.0
 20
0.0
 30
0.0
  3
TITLE-C
  1

  0
LINE
  5
31
100
AcDbEntity
  8
BORDER
100
AcDbLine
 10
-1111.120621
 20
45.639736
 30
0.0
 11
-624.0
 21
45.639736
 31
0.0
  0
LINE
  5
32
100
AcDbEntity
  8
BORDER
 62
     7
100
AcDbLine
 10
0.0
 20
192.0
 30
0.0
 11
-1495.120621
 21
192.0
 31
0.0
  0
LINE
  5
33
100
AcDbEntity
  8
BORDER
 62
     7
100
AcDbLine
 10
-1495.120621
 20
168.0
 30
0.0
 11
-1303.120621
 21
168.0
 31
0.0
  0
LINE
  5
34
100
AcDbEntity
  8
BORDER
 62
     7
100
AcDbLine
 10
-1303.120621
 20
144.0
 30
0.0
 11
-1495.120621
 21
144.0
 31
0.0
  0
LINE
  5
35
100
AcDbEntity
  8
BORDER
 62
     7
100
AcDbLine
 10
-1495.120621
 20
120.0
 30
0.0
 11
-1303.120621
 21
120.0
 31
0.0
  0
LINE
  5
36
100
AcDbEntity
  8
BORDER
 62
     7
100
AcDbLine
 10
-1303.120621
 20
96.0
 30
0.0
 11
-1495.120621
 21
96.0
 31
0.0
  0
LINE
  5
37
100
AcDbEntity
  8
BORDER
 62
     7
100
AcDbLine
 10
-1495.120621
 20
72.0
 30
0.0
 11
-1303.120621
 21
72.0
 31
0.0
  0
LINE
  5
38
100
AcDbEntity
  8
BORDER
 62
     7
100
AcDbLine
 10
-1303.120621
 20
48.0
 30
0.0
 11
-1495.120621
 21
48.0
 31
0.0
  0
LINE
  5
39
100
AcDbEntity
  8
BORDER
 62
     7
100
AcDbLine
 10
-1495.120621
 20
24.0
 30
0.0
 11
-1303.120621
 21
24.0
 31
0.0
  0
LINE
  5
3A
100
AcDbEntity
  8
BORDER
 62
     7
100
AcDbLine
 10
-1495.120621
 20
192.0
 30
0.0
 11
-1495.120621
 21
0.0
 31
0.0
  0
LINE
  5
3B
100
AcDbEntity
  8
BORDER
 62
     7
100
AcDbLine
 10
-1303.120621
 20
192.0
 30
0.0
 11
-1303.120621
 21
0.0
 31
0.0
  0
LINE
  5
3C
100
AcDbEntity
  8
BORDER
 62
     7
100
AcDbLine
 10
-1111.120621
 20
192.0
 30
0.0
 11
-1111.120621
 21
0.0
 31
0.0
  0
LINE
  5
3D
100
AcDbEntity
  8
BORDER
 62
     7
100
AcDbLine
 10
-624.0
 20
0.0
 30
0.0
 11
-624.0
 21
192.0
 31
0.0
  0
LINE
  5
3E
100
AcDbEntity
  8
BORDER
 62
     7
100
AcDbLine
 10
-624.0
 20
72.0
 30
0.0
 11
-192.0
 21
72.0
 31
0.0
  0
LINE
  5
3F
100
AcDbEntity
  8
BORDER
 62
     7
100
AcDbLine
 10
-192.0
 20
36.0
 30
0.0
 11
-624.0
 21
36.0
 31
0.0
  0
LINE
  5
40
100
AcDbEntity
  8
BORDER
 62
     7
100
AcDbLine
 10
-192.0
 20
192.0
 30
0.0
 11
-192.0
 21
0.0
 31
0.0
  0
LINE
  5
41
100
AcDbEntity
  8
BORDER
 62
     7
100
AcDbLine
 10
-192.0
 20
72.0
 30
0.0
 11
0.0
 21
72.0
 31
0.0
  0
TEXT
  5
42
100
AcDbEntity
  8
BORDER
 62
     5
100
AcDbText
 10
-462.521463
 20
171.04472
 30
0.0
 40
12.0
  1

100
AcDbText
  0
LINE
  5
43
100
AcDbEntity
  8
BORDER
100
AcDbLine
 10
-382.642414
 20
72.0
 30
0.0
 11
-382.642414
 21
36.0
 31
0.0
  0
LINE
  5
44
100
AcDbEntity
  8
BORDER
 62
     7
100
AcDbLine
 10
0.0
 20
192.0
 30
0.0
 11
0.0
 21
0.0
 31
0.0
  0
TEXT
  5
45
100
AcDbEntity
  8
BORDER
 62
     5
100
AcDbText
 10
-1442.075622
 20
29.16641
 30
0.0
 40
12.0
  1
REVISIONS
100
AcDbText
  0
TEXT
  5
46
100
AcDbEntity
  8
BORDER
 62
     5
100
AcDbText
 10
-1487.583121
 20
6.28943
 30
0.0
 40
12.0
  1
ISSUED:
100
AcDbText
  0
TEXT
  5
47
100
AcDbEntity
  8
BORDER
 62
     7
100
AcDbText
 10
-1101.910167
 20
15.419704
 30
0.0
 40
12.0
  1
PRINCETON UNIVERSITY
100
AcDbText
  0
TEXT
  5
48
100
AcDbEntity
  8
BORDER
 62
     5
100
AcDbText
 10
-1080.218856
 20
67.046465
 30
0.0
 40
12.0
  1
NEW JERSEY REGISTRATION NO. %%u           %%u
100
AcDbText
  0
TEXT
  5
49
100
AcDbEntity
  8
BORDER
 62
     5
100
AcDbText
 10
-1080.218856
 20
144.037299
 30
0.0
 40
12.0
  1
PROJECT ENGINEER:
100
AcDbText
  0
TEXT
  5
4A
100
AcDbEntity
  8
BORDER
 62
     5
100
AcDbText
 10
-610.960538
 20
168.992972
 30
0.0
 40
12.0
  1
TITLE-PROJECT:
100
AcDbText
  0
TEXT
  5
4B
100
AcDbEntity
  8
BORDER
 62
     5
100
AcDbText
 10
-610.904543
 20
110.005244
 30
0.0
 40
12.0
  1
TITLE-DRAWING:
100
AcDbText
  0
TEXT
  5
4C
100
AcDbEntity
  8
BORDER
 62
     5
100
AcDbText
 10
-503.230865
 20
21.324842
 30
0.0
 40
12.0
  1
SCALE:
100
AcDbText
  0
TEXT
  5
4D
100
AcDbEntity
  8
BORDER
 62
     5
100
AcDbText
 10
-619.089401
 20
21.162819
 30
0.0
 40
12.0
  1
DATE:
100
AcDbText
  0
TEXT
  5
4E
100
AcDbEntity
  8
BORDER
 62
     7
100
AcDbText
 10
-858.262483
 20
16.39162
 30
0.0
 40
12.0
  1
PRINCETON,NEW JERSEY
100
AcDbText
  0
TEXT
  5
4F
100
AcDbEntity
  8
BORDER
 62
     5
100
AcDbText
 10
-378.322752
 20
21.162819
 30
0.0
 40
12.0
  1
DRAWN BY:
100
AcDbText
  0
TEXT
  5
50
100
AcDbEntity
  8
BORDER
 62
     5
100
AcDbText
 10
-619.005877
 20
57.684642
 30
0.0
 40
12.0
  1
BLDG.:
100
AcDbText
  0
TEXT
  5
51
100
AcDbEntity
  8
BORDER
 62
     5
100
AcDbText
 10
-378.285664
 20
57.703303
 30
0.0
 40
12.0
  1
CAD NO.:
100
AcDbText
  0
TEXT
  5
52
100
AcDbEntity
  8
BORDER
 62
     5
100
AcDbText
 10
-109.927162
 20
22.600819
 30
0.0
 40
12.0
  1
OF
100
AcDbText
  0
TEXT
  5
53
100
AcDbEntity
  8
BORDER
 62
     5
100
AcDbText
 10
-175.804745
 20
109.82415
 30
0.0
 40
12.0
  1
ARCH./ENG.:
100
AcDbText
  0
LINE
  5
54
100
AcDbEntity
  8
BORDER
 62
     7
100
AcDbLine
 10
-192.0
 20
131.820626
 30
0.0
 11
0.0
 21
131.820626
 31
0.0
  0
ATTDEF
  5
55
100
AcDbEntity
  8
BORTXT
100
AcDbText
 10
-459.669401
 20
169.125
 30
0.0
 40
12.0
  1

100
AcDbAttributeDefinition
  3
TITLE-PROJECT
  2
TITLE-PROJECT:
 70
     0
  0
ATTDEF
  5
56
100
AcDbEntity
  8
BORTXT
100
AcDbText
 10
-457.5625
 20
109.875
 30
0.0
 40
12.0
  1

100
AcDbAttributeDefinition
  3
TITLE-DRAWING
  2
TITLE-DRAWING:
 70
     0
  0
ATTDEF
  5
57
100
AcDbEntity
  8
BORTXT
100
AcDbText
 10
-502.64383
 20
5.041186
 30
0.0
 40
12.0
  1

100
AcDbAttributeDefinition
  3
SCALE
  2
SCALE:
 70
     0
  0
ATTDEF
  5
58
100
AcDbEntity
  8
BORTXT
100
AcDbText
 10
-619.005832
 20
5.4375
 30
0.0
 40
12.0
  1

100
AcDbAttributeDefinition
  3
DATE
  2
DATE:
 70
     0
  0
ATTDEF
  5
59
100
AcDbEntity
  8
BORTXT
100
AcDbText
 10
-619.103194
 20
41.3125
 30
0.0
 40
12.0
  1

100
AcDbAttributeDefinition
  3
BLDG.
  2
BLDG.:
 70
     0
  0
ATTDEF
  5
5A
100
AcDbEntity
  8
BORTXT
100
AcDbText
 10
-378.316591
 20
41.3125
 30
0.0
 40
12.0
  1

100
AcDbAttributeDefinition
  3
CAD NO.
  2
CAD_NO.:
 70
     0
  0
ATTDEF
  5
5B
100
AcDbEntity
  8
BORTXT
100
AcDbText
 10
-378.322594
 20
5.4375
 30
0.0
 40
12.0
  1

100
AcDbAttributeDefinition
  3
DRAWN BY
  2
DRAWN_BY:
 70
     0
  0
ATTDEF
  5
5C
100
AcDbEntity
  8
BORTXT
100
AcDbText
 10
-175.375
 20
83.375
 30
0.0
 40
12.0
  1

100
AcDbAttributeDefinition
  3
ARCH./ENG.
  2
ARCH./ENG.:
 70
     0
  0
ATTDEF
  5
5D
100
AcDbEntity
  8
BORTXT
100
AcDbText
 10
-132.618404
 20
22.637273
 30
0.0
 40
12.0
  1

100
AcDbAttributeDefinition
  3
PAGE
  2
#
 70
     0
  0
ATTDEF
  5
5E
100
AcDbEntity
  8
BORTXT
100
AcDbText
 10
-79.932545
 20
22.63727
 30
0.0
 40
12.0
  1

100
AcDbAttributeDefinition
  3
OF PAGE
  2
/#
 70
     0
  0
ATTDEF
  5
5F
100
AcDbEntity
  8
BORTXT
100
AcDbText
 10
-1419.780941
 20
6.157534
 30
0.0
 40
12.0
  1

100
AcDbAttributeDefinition
  3
ISSUE DATE
  2
ISSUE_DATE:
 70
     0
  0
POINT
  5
60
100
AcDbEntity
  8
BORDER
100
AcDbPoint
 10
-1207.120621
 20
96.0
 30
0.0
  0
LINE
  5
61
100
AcDbEntity
  8
BORDER
 62
     7
100
AcDbLine
 10
-382.642414
 20
36.0
 30
0.0
 11
-382.642414
 21
0.0
 31
0.0
  0
TEXT
  5
62
100
AcDbEntity
  8
BORDER
 62
     5
100
AcDbText
 10
-175.804745
 20
169.927544
 30
0.0
 40
12.0
  1
OPP #:
100
AcDbText
  0
ATTDEF
  5
63
100
AcDbEntity
  8
BORTXT
100
AcDbText
 10
-175.375
 20
143.478394
 30
0.0
 40
12.0
  1

100
AcDbAttributeDefinition
  3
OPP #
  2
OPP_#:
 70
     0
  0
LINE
  5
64
100
AcDbEntity
  8
BORDER
 62
     7
100
AcDbLine
 10
-507.067566
 20
36.0
 30
0.0
 11
-507.067566
 21
0.0
 31
0.0
  0
ENDBLK
  5
65
100
AcDbEntity
  8
0
100
AcDbBlockEnd
  0
BLOCK
  5
66
100
AcDbEntity
  8
0
100
AcDbBlockBegin
  2
N
 70
     0
 10
0.0
 20
0.0
 30
0.0
  3
N
  1

  0
CIRCLE
  5
67
100
AcDbEntity
  8
BORDER
 62
     4
100
AcDbCircle
 10
0.0
 20
0.0
 30
0.0
 40
0.155685
  0
CIRCLE
  5
68
100
AcDbEntity
  8
BORDER
 62
     4
100
AcDbCircle
 10
0.0
 20
0.0
 30
0.0
 40
0.080315
  0
SOLID
  5
69
100
AcDbEntity
  8
BORDER
 62
     4
100
AcDbTrace
 10
-0.084757
 20
-0.845997
 30
0.0
 11
0.001288
 21
-0.71642
 31
0.0
 12
-0.090934
 22
-1.700697
 32
0.0
 13
-0.002972
 23
-1.586521
 33
0.0
  0
SOLID
  5
6A
100
AcDbEntity
  8
BORDER
 62
     4
100
AcDbTrace
 10
-0.000292
 20
1.381197
 30
0.0
 11
-0.000292
 21
1.381197
 31
0.0
 12
0.005053
 22
0.467458
 32
0.0
 13
0.08938
 23
0.355447
 33
0.0
  0
SOLID
  5
6B
100
AcDbEntity
  8
BORDER
 62
     4
100
AcDbTrace
 10
-0.074563
 20
1.72645
 30
0.0
 11
0.080011
 21
1.582001
 31
0.0
 12
-0.07814
 22
1.625388
 32
0.0
 13
0.082855
 23
1.487995
 33
0.0
  0
LINE
  5
6C
100
AcDbEntity
  8
BORDER
 62
     4
100
AcDbLine
 10
0.082855
 20
1.487995
 30
0.0
 11
0.082
 21
1.716751
 31
0.0
  0
LINE
  5
6D
100
AcDbEntity
  8
BORDER
 62
     4
100
AcDbLine
 10
-0.07814
 20
1.625388
 30
0.0
 11
0.082855
 21
1.487995
 31
0.0
  0
LINE
  5
6E
100
AcDbEntity
  8
BORDER
 62
     4
100
AcDbLine
 10
-0.074563
 20
1.72645
 30
0.0
 11
0.080011
 21
1.582001
 31
0.0
  0
LINE
  5
6F
100
AcDbEntity
  8
BORDER
 62
     4
100
AcDbLine
 10
-0.079163
 20
1.495451
 30
0.0
 11
-0.074563
 21
1.72645
 31
0.0
  0
LWPOLYLINE
  5
70
100
AcDbEntity
  8
BORDER
 62
     4
100
AcDbPolyline
 90
        5
 70
     0
 43
0.0
 10
-0.000292
 20
1.381197
 10
-0.080658
 20
0.36451
 10
0.005053
 20
0.467458
 10
0.08938
 20
0.355447
 10
-0.001896
 20
1.381518
  0
LWPOLYLINE
  5
77
100
AcDbEntity
  8
BORDER
 62
     4
100
AcDbPolyline
 90
        2
 70
     0
 43
0.0
 10
-0.175476
 20
-0.000234
 10
0.180009
 20
0.00024
  0
LWPOLYLINE
  5
7B
100
AcDbEntity
  8
BORDER
 62
     4
100
AcDbPolyline
 90
        7
 70
     0
 43
0.0
 10
0.001288
 20
-0.71642
 10
-0.084757
 20
-0.845997
 10
-0.090934
 20
-1.700697
 10
-0.00425
 20
-1.576254
 10
0.084567
 20
-1.690833
 10
0.083038
 20
-0.849605
 10
0.00097
 20
-0.709682
  0
LWPOLYLINE
  5
84
100
AcDbEntity
  8
BORDER
 62
     4
100
AcDbPolyline
 90
        2
 70
     0
 43
0.0
 10
0.002599
 20
1.387291
 10
-0.002972
 20
-1.586521
  0
ENDBLK
  5
88
100
AcDbEntity
  8
0
100
AcDbBlockEnd
  0
BLOCK
  5
5C9
100
AcDbEntity
  8
0
100
AcDbBlockBegin
  2
TTL__BLK
 70
     0
 10
0.0
 20
0.0
 30
0.0
  3
TTL__BLK
  1

  0
LINE
  5
57F
100
AcDbEntity
  8
0
 62
     7
100
AcDbLine
 10
-624.0
 20
0.0
 30
0.0
 11
-624.0
 21
180.0
 31
0.0
  0
LINE
  5
580
100
AcDbEntity
  8
0
 62
     7
100
AcDbLine
 10
-192.0
 20
180.0
 30
0.0
 11
-192.0
 21
0.0
 31
0.0
  0
TEXT
  5
581
100
AcDbEntity
  8
0
 62
     3
100
AcDbText
 10
-941.333333
 20
24.0
 30
0.0
 40
8.0
  1
REVISIONS
 72
     1
 11
-912.0
 21
24.0
 31
0.0
100
AcDbText
  0
TEXT
  5
582
100
AcDbEntity
  8
0
 62
     3
100
AcDbText
 10
-933.333333
 20
6.0
 30
0.0
 40
8.0
  1
ISSUED:
 72
     1
 11
-912.0
 21
6.0
 31
0.0
100
AcDbText
  0
TEXT
  5
583
100
AcDbEntity
  8
0
 62
     4
100
AcDbText
 10
-596.928571
 20
157.0
 30
0.0
 40
15.0
  1
PRINCETON CAD DOCUMENTATION
 72
     1
 11
-408.0
 21
157.0
 31
0.0
100
AcDbText
  0
TEXT
  5
584
100
AcDbEntity
  8
0
 62
     3
100
AcDbText
 10
-530.0
 20
90.0
 30
0.0
 40
12.0
  1
SAVAGE ENGINEERING, INC.
 72
     1
 11
-408.0
 21
90.0
 31
0.0
100
AcDbText
  0
TEXT
  5
585
100
AcDbEntity
  8
0
 62
     1
100
AcDbText
 10
-474.0
 20
18.0
 30
0.0
 40
6.0
  1
SCALE:
100
AcDbText
  0
TEXT
  5
586
100
AcDbEntity
  8
0
 62
     1
100
AcDbText
 10
-618.0
 20
18.0
 30
0.0
 40
6.0
  1
DATE:
100
AcDbText
  0
TEXT
  5
587
100
AcDbEntity
  8
0
 62
     1
100
AcDbText
 10
-330.0
 20
18.0
 30
0.0
 40
6.0
  1
DRAWN BY:
100
AcDbText
  0
TEXT
  5
588
100
AcDbEntity
  8
0
 62
     1
100
AcDbText
 10
-186.0
 20
108.0
 30
0.0
 40
6.0
  1
FLOOR
100
AcDbText
  0
POINT
  5
589
100
AcDbEntity
  8
0
 62
     1
100
AcDbPoint
 10
-718.379652
 20
94.220299
 30
0.0
  0
TEXT
  5
58A
100
AcDbEntity
  8
0
 62
     1
100
AcDbText
 10
-186.0
 20
168.0
 30
0.0
 40
6.0
  1
BUILDING NAME
100
AcDbText
  0
TEXT
  5
58B
100
AcDbEntity
  8
0
 62
     1
100
AcDbText
 10
-186.0
 20
48.0
 30
0.0
 40
6.0
  1
DRAWING NO.
100
AcDbText
  0
TEXT
  5
58C
100
AcDbEntity
  8
0
 62
     3
100
AcDbText
 10
-485.142857
 20
72.0
 30
0.0
 40
8.0
  1
707 BLOOMFIELD AVENUE
 72
     1
 11
-408.0
 21
72.0
 31
0.0
100
AcDbText
  0
TEXT
  5
58D
100
AcDbEntity
  8
0
 62
     3
100
AcDbText
 10
-511.809524
 20
54.0
 30
0.0
 40
8.0
  1
BLOOMFIELD, CONNECTICUT 06002
 72
     1
 11
-408.0
 21
54.0
 31
0.0
100
AcDbText
  0
LINE
  5
58E
100
AcDbEntity
  8
0
 62
     7
100
AcDbLine
 10
0.0
 20
180.0
 30
0.0
 11
-1008.0
 21
180.0
 31
0.0
  0
LINE
  5
58F
100
AcDbEntity
  8
0
 62
     7
100
AcDbLine
 10
0.0
 20
60.0
 30
0.0
 11
-192.0
 21
60.0
 31
0.0
  0
LINE
  5
590
100
AcDbEntity
  8
0
 62
     7
100
AcDbLine
 10
0.0
 20
120.0
 30
0.0
 11
-624.0
 21
120.0
 31
0.0
  0
LINE
  5
591
100
AcDbEntity
  8
0
 62
     7
100
AcDbLine
 10
-192.0
 20
30.0
 30
0.0
 11
-622.379652
 21
30.0
 31
0.0
  0
TEXT
  5
592
100
AcDbEntity
  8
0
 62
     3
100
AcDbText
 10
-587.333333
 20
6.0
 30
0.0
 40
8.0
  1
03/15/97
 72
     1
 11
-558.0
 21
6.0
 31
0.0
100
AcDbText
  0
LINE
  5
593
100
AcDbEntity
  8
0
 62
     7
100
AcDbLine
 10
-480.0
 20
0.0
 30
0.0
 11
-480.0
 21
30.0
 31
0.0
  0
LINE
  5
594
100
AcDbEntity
  8
0
 62
     7
100
AcDbLine
 10
-336.0
 20
0.0
 30
0.0
 11
-336.0
 21
30.0
 31
0.0
  0
LINE
  5
595
100
AcDbEntity
  8
0
 62
     7
100
AcDbLine
 10
-816.0
 20
0.0
 30
0.0
 11
-816.0
 21
180.0
 31
0.0
  0
LINE
  5
596
100
AcDbEntity
  8
0
 62
     7
100
AcDbLine
 10
-1008.0
 20
0.0
 30
0.0
 11
-1008.0
 21
180.0
 31
0.0
  0
LINE
  5
597
100
AcDbEntity
  8
0
 62
     7
100
AcDbLine
 10
-816.0
 20
18.0
 30
0.0
 11
-1008.0
 21
18.0
 31
0.0
  0
LINE
  5
598
100
AcDbEntity
  8
0
 62
     7
100
AcDbLine
 10
-816.0
 20
36.0
 30
0.0
 11
-1008.0
 21
36.0
 31
0.0
  0
LINE
  5
599
100
AcDbEntity
  8
0
 62
     7
100
AcDbLine
 10
-816.0
 20
54.0
 30
0.0
 11
-1008.0
 21
54.0
 31
0.0
  0
LINE
  5
59A
100
AcDbEntity
  8
0
 62
     7
100
AcDbLine
 10
-816.0
 20
72.0
 30
0.0
 11
-1008.0
 21
72.0
 31
0.0
  0
LINE
  5
59B
100
AcDbEntity
  8
0
 62
     7
100
AcDbLine
 10
-816.0
 20
90.0
 30
0.0
 11
-1008.0
 21
90.0
 31
0.0
  0
LINE
  5
59C
100
AcDbEntity
  8
0
 62
     7
100
AcDbLine
 10
-816.0
 20
108.0
 30
0.0
 11
-1008.0
 21
108.0
 31
0.0
  0
LINE
  5
59D
100
AcDbEntity
  8
0
 62
     7
100
AcDbLine
 10
-816.0
 20
126.0
 30
0.0
 11
-1008.0
 21
126.0
 31
0.0
  0
LINE
  5
59E
100
AcDbEntity
  8
0
 62
     7
100
AcDbLine
 10
-816.0
 20
144.0
 30
0.0
 11
-1008.0
 21
144.0
 31
0.0
  0
LINE
  5
59F
100
AcDbEntity
  8
0
 62
     7
100
AcDbLine
 10
-816.0
 20
162.0
 30
0.0
 11
-1008.0
 21
162.0
 31
0.0
  0
TEXT
  5
5A0
100
AcDbEntity
  8
0
 62
     1
100
AcDbText
 10
-330.0
 20
18.0
 30
0.0
 40
6.0
  1
DRAWN BY:
100
AcDbText
  0
TEXT
  5
5A1
100
AcDbEntity
  8
0
 62
     3
100
AcDbText
 10
-440.761905
 20
6.0
 30
0.0
 40
8.0
  1
1/8'=1'-0"
 72
     1
 11
-408.0
 21
6.0
 31
0.0
100
AcDbText
  0
TEXT
  5
5A2
100
AcDbEntity
  8
0
 62
     3
100
AcDbText
 10
-287.238095
 20
6.0
 30
0.0
 40
8.0
  1
GRPHCM
 72
     1
 11
-264.0
 21
6.0
 31
0.0
100
AcDbText
  0
CIRCLE
  5
5A3
100
AcDbEntity
  8
0
 62
     1
100
AcDbCircle
 10
-718.379652
 20
94.220299
 30
0.0
 40
7.472894
  0
CIRCLE
  5
5A4
100
AcDbEntity
  8
0
 62
     1
100
AcDbCircle
 10
-718.379652
 20
94.220299
 30
0.0
 40
3.855136
  0
SOLID
  5
5A5
100
AcDbEntity
  8
0
 62
     1
100
AcDbTrace
 10
-677.771818
 20
90.151966
 30
0.0
 11
-683.991497
 21
94.282108
 31
0.0
 12
-636.746211
 22
89.855456
 32
0.0
 13
-642.226644
 23
94.077651
 33
0.0
  0
SOLID
  5
5A6
100
AcDbEntity
  8
0
 62
     1
100
AcDbTrace
 10
-784.677092
 20
94.206296
 30
0.0
 11
-784.677092
 21
94.206296
 31
0.0
 12
-740.817615
 22
94.462854
 32
0.0
 13
-735.441091
 23
98.510538
 33
0.0
  0
SOLID
  5
5A7
100
AcDbEntity
  8
0
 62
     1
100
AcDbTrace
 10
-801.249229
 20
90.641283
 30
0.0
 11
-794.315713
 21
98.060846
 31
0.0
 12
-796.398293
 22
90.469599
 32
0.0
 13
-789.803432
 23
98.197323
 33
0.0
  0
LINE
  5
5A8
100
AcDbEntity
  8
0
 62
     1
100
AcDbLine
 10
-789.803432
 20
98.197323
 30
0.0
 11
-800.783691
 21
98.156291
 31
0.0
  0
LINE
  5
5A9
100
AcDbEntity
  8
0
 62
     1
100
AcDbLine
 10
-796.398293
 20
90.469599
 30
0.0
 11
-789.803432
 21
98.197323
 31
0.0
  0
LINE
  5
5AA
100
AcDbEntity
  8
0
 62
     1
100
AcDbLine
 10
-801.249229
 20
90.641283
 30
0.0
 11
-794.315713
 21
98.060846
 31
0.0
  0
LINE
  5
5AB
100
AcDbEntity
  8
0
 62
     1
100
AcDbLine
 10
-790.161294
 20
90.420464
 30
0.0
 11
-801.249229
 21
90.641283
 31
0.0
  0
LWPOLYLINE
  5
5AC
100
AcDbEntity
  8
0
 62
     1
100
AcDbPolyline
 90
        5
 70
     0
 43
0.0
 10
-784.677092
 20
94.206296
 10
-735.876133
 20
90.348714
 10
-740.817615
 20
94.462854
 10
-735.441091
 20
98.510538
 10
-784.692529
 20
94.129303
  0
LWPOLYLINE
  5
5B3
100
AcDbEntity
  8
0
 62
     1
100
AcDbPolyline
 90
        2
 70
     0
 43
0.0
 10
-718.368413
 20
85.797458
 10
-718.391182
 20
102.860729
  0
LWPOLYLINE
  5
5B7
100
AcDbEntity
  8
0
 62
     1
100
AcDbPolyline
 90
        7
 70
     0
 43
0.0
 10
-683.991497
 20
94.282108
 10
-677.771818
 20
90.151966
 10
-636.746211
 20
89.855456
 10
-642.719474
 20
94.016283
 10
-637.219648
 20
98.279509
 10
-677.598627
 20
98.206114
 10
-684.314905
 20
94.266861
  0
LWPOLYLINE
  5
5C0
100
AcDbEntity
  8
0
 62
     1
100
AcDbPolyline
 90
        2
 70
     0
 43
0.0
 10
-784.969628
 20
94.345034
 10
-642.226644
 20
94.077651
  0
TEXT
  5
5C4
100
AcDbEntity
  8
0
 62
     3
100
AcDbText
 10
-122.571429
 20
78.0
 30
0.0
 40
12.0
  1
FLOOR
 72
     1
 11
-96.0
 21
78.0
 31
0.0
100
AcDbText
  0
TEXT
  5
5C5
100
AcDbEntity
  8
0
 62
     3
100
AcDbText
 10
-134.285714
 20
138.0
 30
0.0
 40
12.0
  1
BUILDING
 72
     1
 11
-96.0
 21
138.0
 31
0.0
100
AcDbText
  0
TEXT
  5
5C6
100
AcDbEntity
  8
0
 62
     3
100
AcDbText
 10
-141.714286
 20
18.0
 30
0.0
 40
12.0
  1
0000-000
 72
     1
 11
-96.0
 21
18.0
 31
0.0
100
AcDbText
  0
LINE
  5
5C7
100
AcDbEntity
  8
0
 62
     7
100
AcDbLine
 10
-192.0
 20
150.0
 30
0.0
 11
-622.379652
 21
150.0
 31
0.0
  0
TEXT
  5
5C8
100
AcDbEntity
  8
0
 62
     3
100
AcDbText
 10
-512.571429
 20
129.0
 30
0.0
 40
12.0
  1
PROJECT NO. 96-1525
 72
     1
 11
-408.0
 21
129.0
 31
0.0
100
AcDbText
  0
ENDBLK
  5
5CA
100
AcDbEntity
  8
0
100
AcDbBlockEnd
  0
ENDSEC
  0
SECTION
  2
ENTITIES
  0
LINE
  5
89
100
AcDbEntity
  8
XARCH
100
AcDbLine
 10
2046.07731
 20
1640.274457
 30
0.0
 11
2046.07731
 21
1625.786979
 31
0.0
  0
LINE
  5
8A
100
AcDbEntity
  8
XARCH
100
AcDbLine
 10
2046.07731
 20
1625.786979
 30
0.0
 11
2023.043005
 21
1625.786979
 31
0.0
  0
LINE
  5
8B
100
AcDbEntity
  8
XARCH
100
AcDbLine
 10
2023.043005
 20
1625.786979
 30
0.0
 11
2023.043005
 21
1615.623039
 31
0.0
  0
LINE
  5
8C
100
AcDbEntity
  8
XARCH
100
AcDbLine
 10
2023.043005
 20
1615.623039
 30
0.0
 11
2012.388807
 21
1615.623039
 31
0.0
  0
LINE
  5
8D
100
AcDbEntity
  8
XARCH
100
AcDbLine
 10
2012.388807
 20
1615.623039
 30
0.0
 11
2012.388807
 21
1626.181064
 31
0.0
  0
LINE
  5
8E
100
AcDbEntity
  8
XARCH
100
AcDbLine
 10
2012.388807
 20
1626.181064
 30
0.0
 11
1905.784409
 21
1626.181064
 31
0.0
  0
LINE
  5
8F
100
AcDbEntity
  8
XARCH
100
AcDbLine
 10
1905.784409
 20
1626.181064
 30
0.0
 11
1905.784409
 21
1619.211443
 31
0.0
  0
LINE
  5
90
100
AcDbEntity
  8
XARCH
100
AcDbLine
 10
1905.784409
 20
1619.211443
 30
0.0
 11
1860.682792
 21
1619.211443
 31
0.0
  0
LINE
  5
91
100
AcDbEntity
  8
XARCH
100
AcDbLine
 10
1860.682792
 20
1619.211443
 30
0.0
 11
1860.682792
 21
1426.065976
 31
0.0
  0
LINE
  5
92
100
AcDbEntity
  8
XARCH
100
AcDbLine
 10
1860.682792
 20
1426.065976
 30
0.0
 11
1909.461733
 21
1426.065976
 31
0.0
  0
LINE
  5
93
100
AcDbEntity
  8
XARCH
100
AcDbLine
 10
1909.461733
 20
1426.065976
 30
0.0
 11
1909.461733
 21
1414.151662
 31
0.0
  0
LINE
  5
94
100
AcDbEntity
  8
FIELDCHK
100
AcDbLine
 10
1909.461733
 20
1414.151662
 30
0.0
 11
1896.961919
 21
1414.151662
 31
0.0
  0
LINE
  5
96
100
AcDbEntity
  8
XARCH
100
AcDbLine
 10
1896.961919
 20
1334.988628
 30
0.0
 11
1743.812301
 21
1334.988628
 31
0.0
  0
LINE
  5
97
100
AcDbEntity
  8
XARCH
100
AcDbLine
 10
1743.812301
 20
1334.988628
 30
0.0
 11
1743.812301
 21
1327.844535
 31
0.0
  0
LINE
  5
98
100
AcDbEntity
  8
XARCH
100
AcDbLine
 10
1743.812301
 20
1327.844535
 30
0.0
 11
1733.158817
 21
1327.844535
 31
0.0
  0
LINE
  5
99
100
AcDbEntity
  8
XARCH
100
AcDbLine
 10
1733.158817
 20
1327.844535
 30
0.0
 11
1733.158817
 21
1334.852548
 31
0.0
  0
LINE
  5
9A
100
AcDbEntity
  8
XARCH
100
AcDbLine
 10
1733.158817
 20
1334.852548
 30
0.0
 11
1738.150318
 21
1334.852548
 31
0.0
  0
LINE
  5
9B
100
AcDbEntity
  8
XARCH
100
AcDbLine
 10
1738.150318
 20
1334.852548
 30
0.0
 11
1738.150318
 21
1343.294995
 31
0.0
  0
LINE
  5
9C
100
AcDbEntity
  8
XARCH
100
AcDbLine
 10
1738.150318
 20
1343.294995
 30
0.0
 11
1743.910029
 21
1343.294995
 31
0.0
  0
LINE
  5
9D
100
AcDbEntity
  8
XARCH
100
AcDbLine
 10
1743.910029
 20
1343.294995
 30
0.0
 11
1743.910029
 21
1440.689357
 31
0.0
  0
LINE
  5
9E
100
AcDbEntity
  8
XARCH
100
AcDbLine
 10
1743.910029
 20
1440.689357
 30
0.0
 11
1749.31523
 21
1440.689357
 31
0.0
  0
LINE
  5
9F
100
AcDbEntity
  8
XARCH
100
AcDbLine
 10
1749.31523
 20
1440.689357
 30
0.0
 11
1749.31523
 21
1344.3521
 31
0.0
  0
LINE
  5
A0
100
AcDbEntity
  8
XARCH
100
AcDbLine
 10
1749.31523
 20
1344.3521
 30
0.0
 11
1849.31523
 21
1344.3521
 31
0.0
  0
LINE
  5
A1
100
AcDbEntity
  8
FIELDCHK
100
AcDbLine
 10
1849.31523
 20
1344.3521
 30
0.0
 11
1849.31523
 21
1386.647222
 31
0.0
  0
LINE
  5
A2
100
AcDbEntity
  8
FIELDCHK
100
AcDbLine
 10
1849.31523
 20
1386.647222
 30
0.0
 11
1854.891982
 21
1386.647222
 31
0.0
  0
LINE
  5
A3
100
AcDbEntity
  8
FIELDCHK
100
AcDbLine
 10
1854.891982
 20
1386.647222
 30
0.0
 11
1854.891982
 21
1344.411995
 31
0.0
  0
LINE
  5
A4
100
AcDbEntity
  8
FIELDCHK
100
AcDbLine
 10
1854.891982
 20
1344.411995
 30
0.0
 11
1874.411064
 21
1344.411995
 31
0.0
  0
LINE
  5
A5
100
AcDbEntity
  8
FIELDCHK
100
AcDbLine
 10
1874.411064
 20
1344.411995
 30
0.0
 11
1874.411064
 21
1346.897222
 31
0.0
  0
LINE
  5
A6
100
AcDbEntity
  8
FIELDCHK
100
AcDbLine
 10
1874.411064
 20
1346.897222
 30
0.0
 11
1889.891982
 21
1346.897222
 31
0.0
  0
LINE
  5
A7
100
AcDbEntity
  8
FIELDCHK
100
AcDbLine
 10
1896.961919
 20
1334.988628
 30
0.0
 11
1896.961919
 21
1414.151662
 31
0.0
  0
LINE
  5
A8
100
AcDbEntity
  8
FIELDCHK
100
AcDbLine
 10
1889.891982
 20
1421.363701
 30
0.0
 11
1856.01061
 21
1421.363701
 31
0.0
  0
LINE
  5
A9
100
AcDbEntity
  8
FIELDCHK
100
AcDbLine
 10
1856.01061
 20
1421.363701
 30
0.0
 11
1856.01061
 21
1416.872127
 31
0.0
  0
LINE
  5
AA
100
AcDbEntity
  8
FIELDCHK
100
AcDbLine
 10
1856.01061
 20
1416.872127
 30
0.0
 11
1849.483528
 21
1416.872127
 31
0.0
  0
LINE
  5
AB
100
AcDbEntity
  8
FIELDCHK
100
AcDbLine
 10
1849.483528
 20
1416.872127
 30
0.0
 11
1849.483528
 21
1468.3521
 31
0.0
  0
LINE
  5
AC
100
AcDbEntity
  8
FIELDCHK
100
AcDbLine
 10
1849.483528
 20
1468.3521
 30
0.0
 11
1749.23345
 21
1468.3521
 31
0.0
  0
LINE
  5
AD
100
AcDbEntity
  8
FIELDCHK
100
AcDbLine
 10
1749.23345
 20
1468.3521
 30
0.0
 11
1749.23345
 21
1460.996665
 31
0.0
  0
LINE
  5
AE
100
AcDbEntity
  8
FIELDCHK
100
AcDbLine
 10
1749.23345
 20
1460.996665
 30
0.0
 11
1742.8022
 21
1460.996665
 31
0.0
  0
LINE
  5
AF
100
AcDbEntity
  8
FIELDCHK
100
AcDbLine
 10
1742.8022
 20
1460.996665
 30
0.0
 11
1742.8022
 21
1478.36622
 31
0.0
  0
LINE
  5
B0
100
AcDbEntity
  8
FIELDCHK
100
AcDbLine
 10
1742.8022
 20
1478.36622
 30
0.0
 11
1747.701195
 21
1478.36622
 31
0.0
  0
LINE
  5
B1
100
AcDbEntity
  8
FIELDCHK
100
AcDbLine
 10
1747.701195
 20
1478.36622
 30
0.0
 11
1747.701195
 21
1473.374813
 31
0.0
  0
LINE
  5
B2
100
AcDbEntity
  8
FIELDCHK
100
AcDbLine
 10
1747.701195
 20
1473.374813
 30
0.0
 11
1850.392119
 21
1473.374813
 31
0.0
  0
LINE
  5
B3
100
AcDbEntity
  8
XARCH
100
AcDbLine
 10
1850.392119
 20
1473.374813
 30
0.0
 11
1850.392119
 21
1640.274457
 31
0.0
  0
LINE
  5
B4
100
AcDbEntity
  8
XARCH
100
AcDbLine
 10
1850.392119
 20
1625.65805
 30
0.0
 11
1749.471403
 21
1625.65805
 31
0.0
  0
LINE
  5
B5
100
AcDbEntity
  8
XARCH
100
AcDbLine
 10
1749.471403
 20
1625.65805
 30
0.0
 11
1749.471403
 21
1530.598225
 31
0.0
  0
LINE
  5
B6
100
AcDbEntity
  8
XARCH
100
AcDbLine
 10
1749.471403
 20
1530.598225
 30
0.0
 11
1744.067135
 21
1530.598225
 31
0.0
  0
LINE
  5
B7
100
AcDbEntity
  8
XARCH
100
AcDbLine
 10
1744.067135
 20
1530.598225
 30
0.0
 11
1744.067135
 21
1626.649696
 31
0.0
  0
LINE
  5
B8
100
AcDbEntity
  8
XARCH
100
AcDbLine
 10
1744.067135
 20
1626.649696
 30
0.0
 11
1623.289149
 21
1626.649696
 31
0.0
  0
LINE
  5
B9
100
AcDbEntity
  8
XARCH
100
AcDbLine
 10
1623.289149
 20
1626.649696
 30
0.0
 11
1623.289149
 21
1613.257562
 31
0.0
  0
LINE
  5
BA
100
AcDbEntity
  8
XARCH
100
AcDbLine
 10
1623.289149
 20
1613.257562
 30
0.0
 11
1603.618538
 21
1613.257562
 31
0.0
  0
LINE
  5
BB
100
AcDbEntity
  8
XARCH
100
AcDbLine
 10
1603.618538
 20
1613.257562
 30
0.0
 11
1603.618538
 21
1627.369359
 31
0.0
  0
LINE
  5
BC
100
AcDbEntity
  8
XARCH
100
AcDbLine
 10
1603.618538
 20
1627.369359
 30
0.0
 11
1353.940185
 21
1627.369359
 31
0.0
  0
LINE
  5
BD
100
AcDbEntity
  8
XARCH
100
AcDbLine
 10
1353.940185
 20
1627.369359
 30
0.0
 11
1353.940185
 21
1614.880499
 31
0.0
  0
LINE
  5
BE
100
AcDbEntity
  8
XARCH
100
AcDbLine
 10
1353.940185
 20
1614.880499
 30
0.0
 11
1342.42123
 21
1614.880499
 31
0.0
  0
LINE
  5
BF
100
AcDbEntity
  8
XARCH
100
AcDbLine
 10
1342.42123
 20
1614.880499
 30
0.0
 11
1342.42123
 21
1348.125029
 31
0.0
  0
LINE
  5
C0
100
AcDbEntity
  8
XARCH
100
AcDbLine
 10
1342.42123
 20
1348.125029
 30
0.0
 11
1351.162974
 21
1348.125029
 31
0.0
  0
LINE
  5
C1
100
AcDbEntity
  8
XARCH
100
AcDbLine
 10
1351.162974
 20
1348.125029
 30
0.0
 11
1351.162974
 21
1337.27954
 31
0.0
  0
LINE
  5
C2
100
AcDbEntity
  8
XARCH
100
AcDbLine
 10
1351.162974
 20
1337.27954
 30
0.0
 11
1355.861104
 21
1337.27954
 31
0.0
  0
LINE
  5
C3
100
AcDbEntity
  8
XARCH
100
AcDbLine
 10
1355.861104
 20
1337.27954
 30
0.0
 11
1355.861104
 21
1328.738246
 31
0.0
  0
LINE
  5
C4
100
AcDbEntity
  8
XARCH
100
AcDbLine
 10
1355.861104
 20
1328.738246
 30
0.0
 11
1322.754058
 21
1328.738246
 31
0.0
  0
LINE
  5
C5
100
AcDbEntity
  8
XARCH
100
AcDbLine
 10
1322.754058
 20
1328.738246
 30
0.0
 11
1322.754058
 21
1336.42501
 31
0.0
  0
LINE
  5
C6
100
AcDbEntity
  8
XARCH
100
AcDbLine
 10
1322.754058
 20
1336.42501
 30
0.0
 11
1327.841515
 21
1336.42501
 31
0.0
  0
LINE
  5
C7
100
AcDbEntity
  8
XARCH
100
AcDbLine
 10
1327.841515
 20
1336.42501
 30
0.0
 11
1327.841515
 21
1350.336284
 31
0.0
  0
LINE
  5
C8
100
AcDbEntity
  8
XARCH
100
AcDbLine
 10
1327.841515
 20
1350.336284
 30
0.0
 11
1335.618143
 21
1350.336284
 31
0.0
  0
LINE
  5
C9
100
AcDbEntity
  8
XARCH
100
AcDbLine
 10
1335.618143
 20
1350.336284
 30
0.0
 11
1335.618143
 21
1616.214623
 31
0.0
  0
LINE
  5
CA
100
AcDbEntity
  8
XARCH
100
AcDbLine
 10
1335.618143
 20
1616.214623
 30
0.0
 11
1073.16729
 21
1616.214623
 31
0.0
  0
LINE
  5
CB
100
AcDbEntity
  8
XARCH
100
AcDbLine
 10
1073.16729
 20
1616.214623
 30
0.0
 11
1073.16729
 21
1349.569981
 31
0.0
  0
LINE
  5
CC
100
AcDbEntity
  8
XARCH
100
AcDbLine
 10
1073.16729
 20
1349.569981
 30
0.0
 11
1079.894635
 21
1349.569981
 31
0.0
  0
LINE
  5
CD
100
AcDbEntity
  8
XARCH
100
AcDbLine
 10
1079.894635
 20
1349.569981
 30
0.0
 11
1079.894635
 21
1339.575135
 31
0.0
  0
LINE
  5
CE
100
AcDbEntity
  8
XARCH
100
AcDbLine
 10
1079.894635
 20
1339.575135
 30
0.0
 11
1084.304491
 21
1339.575135
 31
0.0
  0
LINE
  5
CF
100
AcDbEntity
  8
XARCH
100
AcDbLine
 10
1084.304491
 20
1339.575135
 30
0.0
 11
1084.304491
 21
1329.305943
 31
0.0
  0
LINE
  5
D0
100
AcDbEntity
  8
XARCH
100
AcDbLine
 10
1084.304491
 20
1329.305943
 30
0.0
 11
1052.829108
 21
1329.305943
 31
0.0
  0
LINE
  5
D1
100
AcDbEntity
  8
XARCH
100
AcDbLine
 10
1052.829108
 20
1329.305943
 30
0.0
 11
1052.829108
 21
1339.391025
 31
0.0
  0
LINE
  5
D2
100
AcDbEntity
  8
XARCH
100
AcDbLine
 10
1052.829108
 20
1339.391025
 30
0.0
 11
1057.820888
 21
1339.391025
 31
0.0
  0
LINE
  5
D3
100
AcDbEntity
  8
XARCH
100
AcDbLine
 10
1057.820888
 20
1339.391025
 30
0.0
 11
1057.820888
 21
1350.325756
 31
0.0
  0
LINE
  5
D4
100
AcDbEntity
  8
XARCH
100
AcDbLine
 10
1057.820888
 20
1350.325756
 30
0.0
 11
1066.652601
 21
1350.325756
 31
0.0
  0
LINE
  5
D5
100
AcDbEntity
  8
XARCH
100
AcDbLine
 10
1066.652601
 20
1350.325756
 30
0.0
 11
1066.652601
 21
1615.546981
 31
0.0
  0
LINE
  5
D6
100
AcDbEntity
  8
XARCH
100
AcDbLine
 10
1066.652601
 20
1615.546981
 30
0.0
 11
664.873041
 21
1615.546981
 31
0.0
  0
LINE
  5
D7
100
AcDbEntity
  8
XARCH
100
AcDbLine
 10
664.873041
 20
1640.274457
 30
0.0
 11
664.873041
 21
1345.850203
 31
0.0
  0
LINE
  5
D8
100
AcDbEntity
  8
XARCH
100
AcDbLine
 10
664.873041
 20
1345.850203
 30
0.0
 11
671.214976
 21
1345.850203
 31
0.0
  0
LINE
  5
D9
100
AcDbEntity
  8
XARCH
100
AcDbLine
 10
671.214976
 20
1345.850203
 30
0.0
 11
671.214976
 21
1339.035439
 31
0.0
  0
LINE
  5
DA
100
AcDbEntity
  8
XARCH
100
AcDbLine
 10
671.214976
 20
1339.035439
 30
0.0
 11
670.445771
 21
1339.035439
 31
0.0
  0
LINE
  5
DB
100
AcDbEntity
  8
XARCH
100
AcDbLine
 10
670.445771
 20
1339.035439
 30
0.0
 11
674.571365
 21
1339.035439
 31
0.0
  0
LINE
  5
DC
100
AcDbEntity
  8
XARCH
100
AcDbLine
 10
674.571365
 20
1339.035439
 30
0.0
 11
674.571365
 21
1332.892524
 31
0.0
  0
LINE
  5
DD
100
AcDbEntity
  8
XARCH
100
AcDbLine
 10
674.571365
 20
1332.892524
 30
0.0
 11
665.357879
 21
1332.892524
 31
0.0
  0
LINE
  5
DE
100
AcDbEntity
  8
XARCH
100
AcDbLine
 10
665.357879
 20
1332.892524
 30
0.0
 11
665.357879
 21
1326.178721
 31
0.0
  0
LINE
  5
DF
100
AcDbEntity
  8
XARCH
100
AcDbLine
 10
665.357879
 20
1326.178721
 30
0.0
 11
654.129341
 21
1326.178721
 31
0.0
  0
LINE
  5
E0
100
AcDbEntity
  8
XARCH
100
AcDbLine
 10
654.129341
 20
1326.178721
 30
0.0
 11
654.129341
 21
1443.057036
 31
0.0
  0
LINE
  5
E1
100
AcDbEntity
  8
XARCH
100
AcDbLine
 10
654.129341
 20
1443.057036
 30
0.0
 11
650.040991
 21
1443.057036
 31
0.0
  0
LINE
  5
E2
100
AcDbEntity
  8
XARCH
100
AcDbLine
 10
650.040991
 20
1443.057036
 30
0.0
 11
650.040991
 21
1451.406635
 31
0.0
  0
LINE
  5
E3
100
AcDbEntity
  8
XARCH
100
AcDbLine
 10
650.040991
 20
1451.406635
 30
0.0
 11
653.978029
 21
1451.406635
 31
0.0
  0
LINE
  5
E4
100
AcDbEntity
  8
XARCH
100
AcDbLine
 10
653.978029
 20
1451.406635
 30
0.0
 11
653.978029
 21
1492.666424
 31
0.0
  0
LINE
  5
E5
100
AcDbEntity
  8
XARCH
100
AcDbLine
 10
653.978029
 20
1492.666424
 30
0.0
 11
650.248603
 21
1492.666424
 31
0.0
  0
LINE
  5
E6
100
AcDbEntity
  8
XARCH
100
AcDbLine
 10
650.248603
 20
1492.666424
 30
0.0
 11
650.248603
 21
1580.179648
 31
0.0
  0
LINE
  5
E7
100
AcDbEntity
  8
XARCH
100
AcDbLine
 10
650.248603
 20
1580.179648
 30
0.0
 11
614.098063
 21
1569.732439
 31
0.0
  0
LINE
  5
E8
100
AcDbEntity
  8
XARCH
100
AcDbLine
 10
614.098063
 20
1569.732439
 30
0.0
 11
614.098063
 21
1452.857451
 31
0.0
  0
LINE
  5
E9
100
AcDbEntity
  8
XARCH
100
AcDbLine
 10
614.098063
 20
1452.857451
 30
0.0
 11
617.994284
 21
1452.857451
 31
0.0
  0
LINE
  5
EA
100
AcDbEntity
  8
XARCH
100
AcDbLine
 10
617.994284
 20
1452.857451
 30
0.0
 11
617.994284
 21
1443.069844
 31
0.0
  0
LINE
  5
EB
100
AcDbEntity
  8
XARCH
100
AcDbLine
 10
617.994284
 20
1443.069844
 30
0.0
 11
580.856513
 21
1443.069844
 31
0.0
  0
LINE
  5
EC
100
AcDbEntity
  8
XARCH
100
AcDbLine
 10
580.856513
 20
1443.069844
 30
0.0
 11
580.856513
 21
1452.676326
 31
0.0
  0
LINE
  5
ED
100
AcDbEntity
  8
XARCH
100
AcDbLine
 10
580.856513
 20
1452.676326
 30
0.0
 11
584.985029
 21
1452.676326
 31
0.0
  0
LINE
  5
EE
100
AcDbEntity
  8
XARCH
100
AcDbLine
 10
584.985029
 20
1452.676326
 30
0.0
 11
584.985029
 21
1585.382615
 31
0.0
  0
LINE
  5
EF
100
AcDbEntity
  8
XARCH
100
AcDbLine
 10
584.985029
 20
1585.382615
 30
0.0
 11
615.542786
 21
1585.382615
 31
0.0
  0
LINE
  5
F0
100
AcDbEntity
  8
XARCH
100
AcDbLine
 10
615.542786
 20
1585.382615
 30
0.0
 11
615.542786
 21
1576.449133
 31
0.0
  0
LINE
  5
F1
100
AcDbEntity
  8
XARCH
100
AcDbLine
 10
610.29602
 20
1575.072307
 30
0.0
 11
654.885066
 21
1586.895409
 31
0.0
  0
LINE
  5
F2
100
AcDbEntity
  8
XARCH
100
AcDbLine
 10
654.885066
 20
1586.895409
 30
0.0
 11
654.885066
 21
1628.444404
 31
0.0
  0
LINE
  5
F3
100
AcDbEntity
  8
XARCH
100
AcDbLine
 10
654.885066
 20
1628.444404
 30
0.0
 11
543.301074
 21
1628.444404
 31
0.0
  0
LINE
  5
F4
100
AcDbEntity
  8
XARCH
100
AcDbLine
 10
543.301074
 20
1628.444404
 30
0.0
 11
543.301074
 21
1453.360486
 31
0.0
  0
LINE
  5
F5
100
AcDbEntity
  8
XARCH
100
AcDbLine
 10
543.301074
 20
1453.360486
 30
0.0
 11
547.56228
 21
1453.360486
 31
0.0
  0
LINE
  5
F6
100
AcDbEntity
  8
XARCH
100
AcDbLine
 10
547.56228
 20
1453.360486
 30
0.0
 11
547.56228
 21
1444.147436
 31
0.0
  0
LINE
  5
F7
100
AcDbEntity
  8
XARCH
100
AcDbLine
 10
547.56228
 20
1444.147436
 30
0.0
 11
519.924465
 21
1444.147436
 31
0.0
  0
LINE
  5
F8
100
AcDbEntity
  8
XARCH
100
AcDbLine
 10
519.924465
 20
1444.147436
 30
0.0
 11
519.924465
 21
1419.399378
 31
0.0
  0
LINE
  5
F9
100
AcDbEntity
  8
XARCH
100
AcDbLine
 10
519.924465
 20
1419.399378
 30
0.0
 11
512.239877
 21
1419.399378
 31
0.0
  0
LINE
  5
FA
100
AcDbEntity
  8
XARCH
100
AcDbLine
 10
512.239877
 20
1419.399378
 30
0.0
 11
512.239877
 21
1454.137588
 31
0.0
  0
LINE
  5
FB
100
AcDbEntity
  8
XARCH
100
AcDbLine
 10
512.239877
 20
1454.137588
 30
0.0
 11
471.373706
 21
1454.137588
 31
0.0
  0
LINE
  5
FC
100
AcDbEntity
  8
XARCH
100
AcDbLine
 10
471.373706
 20
1454.137588
 30
0.0
 11
471.373706
 21
1464.610505
 31
0.0
  0
LINE
  5
FD
100
AcDbEntity
  8
XARCH
100
AcDbLine
 10
471.373706
 20
1464.610505
 30
0.0
 11
530.389798
 21
1464.610505
 31
0.0
  0
LINE
  5
FE
100
AcDbEntity
  8
XARCH
100
AcDbLine
 10
530.389798
 20
1444.147436
 30
0.0
 11
530.389798
 21
1640.274457
 31
0.0
  0
LINE
  5
FF
100
AcDbEntity
  8
XARCH
100
AcDbLine
 10
530.389798
 20
1620.616244
 30
0.0
 11
507.123146
 21
1620.616244
 31
0.0
  0
LINE
  5
100
100
AcDbEntity
  8
XARCH
100
AcDbLine
 10
507.123146
 20
1620.616244
 30
0.0
 11
507.123146
 21
1645.476765
 31
0.0
  0
LINE
  5
101
100
AcDbEntity
  8
XARCH
100
AcDbLine
 10
507.123146
 20
1645.476765
 30
0.0
 11
533.806869
 21
1645.476765
 31
0.0
  0
LINE
  5
102
100
AcDbEntity
  8
XARCH
100
AcDbLine
 10
533.806869
 20
1645.476765
 30
0.0
 11
533.806869
 21
1640.274457
 31
0.0
  0
LINE
  5
103
100
AcDbEntity
  8
XARCH
100
AcDbLine
 10
2046.07731
 20
1640.274457
 30
0.0
 11
530.389798
 21
1640.274457
 31
0.0
  0
LINE
  5
104
100
AcDbEntity
  8
XARCH
100
AcDbLine
 10
1328.597955
 20
1616.214623
 30
0.0
 11
1328.597955
 21
1626.400107
 31
0.0
  0
LINE
  5
105
100
AcDbEntity
  8
XARCH
100
AcDbLine
 10
1328.597955
 20
1626.400107
 30
0.0
 11
1081.424259
 21
1626.400107
 31
0.0
  0
LINE
  5
106
100
AcDbEntity
  8
XARCH
100
AcDbLine
 10
1081.424259
 20
1626.400107
 30
0.0
 11
1081.424259
 21
1616.214623
 31
0.0
  0
LINE
  5
107
100
AcDbEntity
  8
XARCH
100
AcDbLine
 10
1058.766504
 20
1615.546981
 30
0.0
 11
1058.766504
 21
1626.96824
 31
0.0
  0
LINE
  5
108
100
AcDbEntity
  8
XARCH
100
AcDbLine
 10
1058.766504
 20
1626.96824
 30
0.0
 11
806.125381
 21
1626.96824
 31
0.0
  0
LINE
  5
109
100
AcDbEntity
  8
XARCH
100
AcDbLine
 10
806.125381
 20
1626.96824
 30
0.0
 11
806.125381
 21
1615.546981
 31
0.0
  0
LINE
  5
10A
100
AcDbEntity
  8
XARCH
100
AcDbLine
 10
784.425573
 20
1615.546981
 30
0.0
 11
784.425573
 21
1626.981873
 31
0.0
  0
LINE
  5
10B
100
AcDbEntity
  8
XARCH
100
AcDbLine
 10
784.425573
 20
1626.981873
 30
0.0
 11
664.873041
 21
1626.981873
 31
0.0
  0
LINE
  5
10C
100
AcDbEntity
  8
XARCH
100
AcDbLine
 10
1697.784589
 20
1335.508686
 30
0.0
 11
1697.784589
 21
1327.51495
 31
0.0
  0
LINE
  5
10D
100
AcDbEntity
  8
XARCH
100
AcDbLine
 10
1697.784589
 20
1327.51495
 30
0.0
 11
1601.544562
 21
1327.51495
 31
0.0
  0
LINE
  5
10E
100
AcDbEntity
  8
XARCH
100
AcDbLine
 10
1601.544562
 20
1327.51495
 30
0.0
 11
1601.544562
 21
1334.269287
 31
0.0
  0
LINE
  5
10F
100
AcDbEntity
  8
XARCH
100
AcDbLine
 10
1601.544562
 20
1334.269287
 30
0.0
 11
1401.684959
 21
1334.269287
 31
0.0
  0
LINE
  5
110
100
AcDbEntity
  8
XARCH
100
AcDbLine
 10
1401.684959
 20
1334.269287
 30
0.0
 11
1401.684959
 21
1326.960523
 31
0.0
  0
LINE
  5
111
100
AcDbEntity
  8
XARCH
100
AcDbLine
 10
1401.684959
 20
1326.960523
 30
0.0
 11
1389.592931
 21
1326.960523
 31
0.0
  0
LINE
  5
112
100
AcDbEntity
  8
XARCH
100
AcDbLine
 10
1389.592931
 20
1326.960523
 30
0.0
 11
1389.592931
 21
1336.079447
 31
0.0
  0
LINE
  5
113
100
AcDbEntity
  8
XARCH
100
AcDbLine
 10
1389.592931
 20
1336.079447
 30
0.0
 11
1394.776763
 21
1336.079447
 31
0.0
  0
LINE
  5
114
100
AcDbEntity
  8
XARCH
100
AcDbLine
 10
1394.776763
 20
1336.079447
 30
0.0
 11
1394.776763
 21
1341.450829
 31
0.0
  0
LINE
  5
115
100
AcDbEntity
  8
XARCH
100
AcDbLine
 10
1394.776763
 20
1341.450829
 30
0.0
 11
1601.54978
 21
1341.450829
 31
0.0
  0
LINE
  5
116
100
AcDbEntity
  8
XARCH
100
AcDbLine
 10
1601.54978
 20
1341.450829
 30
0.0
 11
1601.54978
 21
1346.454692
 31
0.0
  0
LINE
  5
117
100
AcDbEntity
  8
XARCH
100
AcDbLine
 10
1601.54978
 20
1346.454692
 30
0.0
 11
1622.947979
 21
1346.454692
 31
0.0
  0
LINE
  5
118
100
AcDbEntity
  8
XARCH
100
AcDbLine
 10
1622.947979
 20
1346.454692
 30
0.0
 11
1622.947979
 21
1335.508686
 31
0.0
  0
LINE
  5
119
100
AcDbEntity
  8
XARCH
100
AcDbLine
 10
1622.947979
 20
1335.508686
 30
0.0
 11
1697.784589
 21
1335.508686
 31
0.0
  0
LINE
  5
11A
100
AcDbEntity
  8
XARCH
100
AcDbLine
 10
1585.342067
 20
1341.450829
 30
0.0
 11
1585.342067
 21
1334.269287
 31
0.0
  0
LINE
  5
11B
100
AcDbEntity
  8
XARCH
100
AcDbLine
 10
1561.16081
 20
1341.450829
 30
0.0
 11
1561.16081
 21
1334.269287
 31
0.0
  0
LINE
  5
11C
100
AcDbEntity
  8
XARCH
100
AcDbLine
 10
1556.842791
 20
1341.450829
 30
0.0
 11
1556.842791
 21
1334.269287
 31
0.0
  0
LINE
  5
11D
100
AcDbEntity
  8
XARCH
100
AcDbLine
 10
1534.103381
 20
1341.450829
 30
0.0
 11
1534.103381
 21
1334.269287
 31
0.0
  0
LINE
  5
11E
100
AcDbEntity
  8
XARCH
100
AcDbLine
 10
1530.167041
 20
1341.450829
 30
0.0
 11
1530.167041
 21
1334.269287
 31
0.0
  0
LINE
  5
11F
100
AcDbEntity
  8
XARCH
100
AcDbLine
 10
1509.156269
 20
1341.450829
 30
0.0
 11
1509.156269
 21
1334.269287
 31
0.0
  0
LINE
  5
120
100
AcDbEntity
  8
XARCH
100
AcDbLine
 10
1496.493045
 20
1341.450829
 30
0.0
 11
1496.493045
 21
1334.269287
 31
0.0
  0
LINE
  5
121
100
AcDbEntity
  8
XARCH
100
AcDbLine
 10
1473.463822
 20
1341.450829
 30
0.0
 11
1473.463822
 21
1334.269287
 31
0.0
  0
LINE
  5
122
100
AcDbEntity
  8
XARCH
100
AcDbLine
 10
1469.530167
 20
1341.450829
 30
0.0
 11
1469.530167
 21
1334.269287
 31
0.0
  0
LINE
  5
123
100
AcDbEntity
  8
XARCH
100
AcDbLine
 10
1446.409153
 20
1341.450829
 30
0.0
 11
1446.409153
 21
1334.269287
 31
0.0
  0
LINE
  5
124
100
AcDbEntity
  8
XARCH
100
AcDbLine
 10
1442.858123
 20
1341.450829
 30
0.0
 11
1442.858123
 21
1334.269287
 31
0.0
  0
LINE
  5
125
100
AcDbEntity
  8
XARCH
100
AcDbLine
 10
1416.95443
 20
1341.450829
 30
0.0
 11
1416.95443
 21
1334.269287
 31
0.0
  0
LINE
  5
126
100
AcDbEntity
  8
XARCH
100
AcDbLine
 10
1282.710929
 20
1343.285303
 30
0.0
 11
1282.710929
 21
1335.54648
 31
0.0
  0
LINE
  5
127
100
AcDbEntity
  8
XARCH
100
AcDbLine
 10
1282.710929
 20
1335.54648
 30
0.0
 11
1289.232719
 21
1335.54648
 31
0.0
  0
LINE
  5
128
100
AcDbEntity
  8
XARCH
100
AcDbLine
 10
1289.232719
 20
1335.54648
 30
0.0
 11
1289.232719
 21
1327.964332
 31
0.0
  0
LINE
  5
129
100
AcDbEntity
  8
XARCH
100
AcDbLine
 10
1289.232719
 20
1327.964332
 30
0.0
 11
1276.949133
 21
1327.964332
 31
0.0
  0
LINE
  5
12A
100
AcDbEntity
  8
XARCH
100
AcDbLine
 10
1276.949133
 20
1327.964332
 30
0.0
 11
1276.949133
 21
1335.068964
 31
0.0
  0
LINE
  5
12B
100
AcDbEntity
  8
XARCH
100
AcDbLine
 10
1276.949133
 20
1335.068964
 30
0.0
 11
1127.270468
 21
1335.068964
 31
0.0
  0
LINE
  5
12C
100
AcDbEntity
  8
XARCH
100
AcDbLine
 10
1127.270468
 20
1335.068964
 30
0.0
 11
1127.270468
 21
1329.180156
 31
0.0
  0
LINE
  5
12D
100
AcDbEntity
  8
XARCH
100
AcDbLine
 10
1127.270468
 20
1329.180156
 30
0.0
 11
1116.713818
 21
1329.180156
 31
0.0
  0
LINE
  5
12E
100
AcDbEntity
  8
XARCH
100
AcDbLine
 10
1116.713818
 20
1329.180156
 30
0.0
 11
1116.713818
 21
1336.955071
 31
0.0
  0
LINE
  5
12F
100
AcDbEntity
  8
XARCH
100
AcDbLine
 10
1116.713818
 20
1336.955071
 30
0.0
 11
1122.569824
 21
1336.955071
 31
0.0
  0
LINE
  5
130
100
AcDbEntity
  8
XARCH
100
AcDbLine
 10
1122.569824
 20
1336.955071
 30
0.0
 11
1122.569824
 21
1343.285303
 31
0.0
  0
LINE
  5
131
100
AcDbEntity
  8
XARCH
100
AcDbLine
 10
1122.569824
 20
1343.285303
 30
0.0
 11
1282.710929
 21
1343.285303
 31
0.0
  0
LINE
  5
132
100
AcDbEntity
  8
XARCH
100
AcDbLine
 10
1259.11501
 20
1343.285303
 30
0.0
 11
1259.11501
 21
1335.068964
 31
0.0
  0
LINE
  5
133
100
AcDbEntity
  8
XARCH
100
AcDbLine
 10
1233.03298
 20
1343.285303
 30
0.0
 11
1233.03298
 21
1335.068964
 31
0.0
  0
LINE
  5
134
100
AcDbEntity
  8
XARCH
100
AcDbLine
 10
1229.850975
 20
1343.285303
 30
0.0
 11
1229.850975
 21
1335.068964
 31
0.0
  0
LINE
  5
135
100
AcDbEntity
  8
XARCH
100
AcDbLine
 10
1205.47797
 20
1343.285303
 30
0.0
 11
1205.47797
 21
1335.068964
 31
0.0
  0
LINE
  5
136
100
AcDbEntity
  8
XARCH
100
AcDbLine
 10
1194.25425
 20
1343.285303
 30
0.0
 11
1194.25425
 21
1335.068964
 31
0.0
  0
LINE
  5
137
100
AcDbEntity
  8
XARCH
100
AcDbLine
 10
1170.459512
 20
1343.285303
 30
0.0
 11
1170.459512
 21
1335.068964
 31
0.0
  0
LINE
  5
138
100
AcDbEntity
  8
XARCH
100
AcDbLine
 10
1166.235476
 20
1343.285303
 30
0.0
 11
1166.235476
 21
1335.068964
 31
0.0
  0
LINE
  5
139
100
AcDbEntity
  8
XARCH
100
AcDbLine
 10
1143.878956
 20
1343.285303
 30
0.0
 11
1143.878956
 21
1335.068964
 31
0.0
  0
LINE
  5
13A
100
AcDbEntity
  8
XARCH
100
AcDbLine
 10
1010.791309
 20
1344.273552
 30
0.0
 11
1010.791309
 21
1335.271204
 31
0.0
  0
LINE
  5
13B
100
AcDbEntity
  8
XARCH
100
AcDbLine
 10
1010.791309
 20
1335.271204
 30
0.0
 11
1017.217112
 21
1335.271204
 31
0.0
  0
LINE
  5
13C
100
AcDbEntity
  8
XARCH
100
AcDbLine
 10
1017.217112
 20
1335.271204
 30
0.0
 11
1017.217112
 21
1328.455819
 31
0.0
  0
LINE
  5
13D
100
AcDbEntity
  8
XARCH
100
AcDbLine
 10
1017.217112
 20
1328.455819
 30
0.0
 11
1005.604679
 21
1328.455819
 31
0.0
  0
LINE
  5
13E
100
AcDbEntity
  8
XARCH
100
AcDbLine
 10
1005.604679
 20
1328.455819
 30
0.0
 11
1005.604679
 21
1335.943114
 31
0.0
  0
LINE
  5
13F
100
AcDbEntity
  8
XARCH
100
AcDbLine
 10
1005.604679
 20
1335.943114
 30
0.0
 11
805.265481
 21
1335.943114
 31
0.0
  0
LINE
  5
140
100
AcDbEntity
  8
XARCH
100
AcDbLine
 10
805.265481
 20
1335.943114
 30
0.0
 11
805.265481
 21
1328.731774
 31
0.0
  0
LINE
  5
141
100
AcDbEntity
  8
XARCH
100
AcDbLine
 10
805.265481
 20
1328.731774
 30
0.0
 11
712.191968
 21
1328.731774
 31
0.0
  0
LINE
  5
142
100
AcDbEntity
  8
XARCH
100
AcDbLine
 10
712.191968
 20
1328.731774
 30
0.0
 11
712.191968
 21
1338.074246
 31
0.0
  0
LINE
  5
143
100
AcDbEntity
  8
XARCH
100
AcDbLine
 10
712.191968
 20
1338.074246
 30
0.0
 11
781.949884
 21
1338.074246
 31
0.0
  0
LINE
  5
144
100
AcDbEntity
  8
XARCH
100
AcDbLine
 10
781.949884
 20
1338.074246
 30
0.0
 11
781.949884
 21
1349.847798
 31
0.0
  0
LINE
  5
145
100
AcDbEntity
  8
XARCH
100
AcDbLine
 10
781.949884
 20
1349.847798
 30
0.0
 11
805.84579
 21
1349.847798
 31
0.0
  0
LINE
  5
146
100
AcDbEntity
  8
XARCH
100
AcDbLine
 10
805.84579
 20
1349.847798
 30
0.0
 11
805.84579
 21
1344.273552
 31
0.0
  0
LINE
  5
147
100
AcDbEntity
  8
XARCH
100
AcDbLine
 10
805.84579
 20
1344.273552
 30
0.0
 11
1010.791309
 21
1344.273552
 31
0.0
  0
LINE
  5
148
100
AcDbEntity
  8
XARCH
100
AcDbLine
 10
994.678638
 20
1344.273552
 30
0.0
 11
994.678638
 21
1335.943114
 31
0.0
  0
LINE
  5
149
100
AcDbEntity
  8
XARCH
100
AcDbLine
 10
968.002284
 20
1344.273552
 30
0.0
 11
968.002284
 21
1335.943114
 31
0.0
  0
LINE
  5
14A
100
AcDbEntity
  8
XARCH
100
AcDbLine
 10
963.68502
 20
1344.273552
 30
0.0
 11
963.68502
 21
1335.943114
 31
0.0
  0
LINE
  5
14B
100
AcDbEntity
  8
XARCH
100
AcDbLine
 10
940.658255
 20
1344.273552
 30
0.0
 11
940.658255
 21
1335.943114
 31
0.0
  0
LINE
  5
14C
100
AcDbEntity
  8
XARCH
100
AcDbLine
 10
935.767565
 20
1344.273552
 30
0.0
 11
935.767565
 21
1335.943114
 31
0.0
  0
LINE
  5
14D
100
AcDbEntity
  8
XARCH
100
AcDbLine
 10
912.547728
 20
1344.273552
 30
0.0
 11
912.547728
 21
1335.943114
 31
0.0
  0
LINE
  5
14E
100
AcDbEntity
  8
XARCH
100
AcDbLine
 10
900.744683
 20
1344.273552
 30
0.0
 11
900.744683
 21
1335.943114
 31
0.0
  0
LINE
  5
14F
100
AcDbEntity
  8
XARCH
100
AcDbLine
 10
876.949983
 20
1344.273552
 30
0.0
 11
876.949983
 21
1335.943114
 31
0.0
  0
LINE
  5
150
100
AcDbEntity
  8
XARCH
100
AcDbLine
 10
873.5907
 20
1344.273552
 30
0.0
 11
873.5907
 21
1335.943114
 31
0.0
  0
LINE
  5
151
100
AcDbEntity
  8
XARCH
100
AcDbLine
 10
851.235238
 20
1344.273552
 30
0.0
 11
851.235238
 21
1335.943114
 31
0.0
  0
LINE
  5
152
100
AcDbEntity
  8
XARCH
100
AcDbLine
 10
847.768098
 20
1344.273552
 30
0.0
 11
847.768098
 21
1335.943114
 31
0.0
  0
LINE
  5
153
100
AcDbEntity
  8
XARCH
100
AcDbLine
 10
822.93236
 20
1344.273552
 30
0.0
 11
822.93236
 21
1335.943114
 31
0.0
  0
LINE
  5
154
100
AcDbEntity
  8
XARCH
100
AcDbLine
 10
650.248603
 20
1494.398367
 30
0.0
 11
614.098063
 21
1494.398367
 31
0.0
  0
LINE
  5
155
100
AcDbEntity
  8
XARCH
100
AcDbLine
 10
584.985029
 20
1476.000912
 30
0.0
 11
543.301074
 21
1476.000912
 31
0.0
  0
LINE
  5
156
100
AcDbEntity
  8
XARCH
100
AcDbLine
 10
610.203776
 20
1585.382615
 30
0.0
 11
610.203776
 21
1628.444404
 31
0.0
  0
LINE
  5
157
100
AcDbEntity
  8
XARCH
100
AcDbLine
 10
610.29602
 20
1579.618408
 30
0.0
 11
610.29602
 21
1452.67764
 31
0.0
  0
LINE
  5
158
100
AcDbEntity
  8
XARCH
100
AcDbLine
 10
610.29602
 20
1452.67764
 30
0.0
 11
588.75298
 21
1452.67764
 31
0.0
  0
LINE
  5
159
100
AcDbEntity
  8
XARCH
100
AcDbLine
 10
588.75298
 20
1452.67764
 30
0.0
 11
588.75298
 21
1581.443939
 31
0.0
  0
LINE
  5
15A
100
AcDbEntity
  8
XARCH
100
AcDbLine
 10
554.389888
 20
1640.274457
 30
0.0
 11
554.389888
 21
1628.444404
 31
0.0
  0
LINE
  5
15B
100
AcDbEntity
  8
XARCH
100
AcDbLine
 10
2007.066231
 20
1640.274457
 30
0.0
 11
2007.066231
 21
1626.181064
 31
0.0
  0
LINE
  5
15C
100
AcDbEntity
  8
XARCH
100
AcDbLine
 10
1914.852027
 20
1640.274457
 30
0.0
 11
1914.852027
 21
1626.181064
 31
0.0
  0
LINE
  5
15D
100
AcDbEntity
  8
XARCH
100
AcDbLine
 10
1757.403324
 20
1640.274457
 30
0.0
 11
1757.403324
 21
1625.65805
 31
0.0
  0
LINE
  5
15E
100
AcDbEntity
  8
XARCH
100
AcDbLine
 10
1736.768975
 20
1640.274457
 30
0.0
 11
1736.768975
 21
1626.649696
 31
0.0
  0
LINE
  5
15F
100
AcDbEntity
  8
XARCH
100
AcDbLine
 10
1640.825001
 20
1640.274457
 30
0.0
 11
1640.825001
 21
1626.649696
 31
0.0
  0
LINE
  5
160
100
AcDbEntity
  8
XARCH
100
AcDbLine
 10
1580.180186
 20
1640.274457
 30
0.0
 11
1580.180186
 21
1627.369359
 31
0.0
  0
LINE
  5
161
100
AcDbEntity
  8
XARCH
100
AcDbLine
 10
1485.866441
 20
1640.274457
 30
0.0
 11
1485.866441
 21
1627.369359
 31
0.0
  0
LINE
  5
162
100
AcDbEntity
  8
XARCH
100
AcDbLine
 10
1464.467599
 20
1640.274457
 30
0.0
 11
1464.467599
 21
1627.369359
 31
0.0
  0
LINE
  5
163
100
AcDbEntity
  8
XARCH
100
AcDbLine
 10
1372.072651
 20
1640.274457
 30
0.0
 11
1372.072651
 21
1627.369359
 31
0.0
  0
LINE
  5
164
100
AcDbEntity
  8
XARCH
100
AcDbLine
 10
1308.459118
 20
1640.274457
 30
0.0
 11
1308.459118
 21
1626.400107
 31
0.0
  0
LINE
  5
165
100
AcDbEntity
  8
XARCH
100
AcDbLine
 10
1213.276159
 20
1640.274457
 30
0.0
 11
1213.276159
 21
1626.400107
 31
0.0
  0
LINE
  5
166
100
AcDbEntity
  8
XARCH
100
AcDbLine
 10
1190.340276
 20
1640.274457
 30
0.0
 11
1190.340276
 21
1626.400107
 31
0.0
  0
LINE
  5
167
100
AcDbEntity
  8
XARCH
100
AcDbLine
 10
1099.7667
 20
1640.274457
 30
0.0
 11
1099.7667
 21
1626.400107
 31
0.0
  0
LINE
  5
168
100
AcDbEntity
  8
XARCH
100
AcDbLine
 10
1036.439616
 20
1640.274457
 30
0.0
 11
1036.439616
 21
1626.96824
 31
0.0
  0
LINE
  5
169
100
AcDbEntity
  8
XARCH
100
AcDbLine
 10
943.178289
 20
1640.274457
 30
0.0
 11
943.178289
 21
1626.96824
 31
0.0
  0
LINE
  5
16A
100
AcDbEntity
  8
XARCH
100
AcDbLine
 10
922.070584
 20
1640.274457
 30
0.0
 11
922.070584
 21
1626.96824
 31
0.0
  0
LINE
  5
16B
100
AcDbEntity
  8
XARCH
100
AcDbLine
 10
828.711946
 20
1640.274457
 30
0.0
 11
828.711946
 21
1626.96824
 31
0.0
  0
LINE
  5
16C
100
AcDbEntity
  8
XARCH
100
AcDbLine
 10
765.959499
 20
1640.274457
 30
0.0
 11
765.959499
 21
1626.981873
 31
0.0
  0
LINE
  5
16D
100
AcDbEntity
  8
XARCH
100
AcDbLine
 10
672.314791
 20
1640.274457
 30
0.0
 11
672.314791
 21
1626.981873
 31
0.0
  0
LINE
  5
16E
100
AcDbEntity
  8
XARCH
100
AcDbLine
 10
543.301074
 20
1603.629887
 30
0.0
 11
530.389798
 21
1603.629887
 31
0.0
  0
LINE
  5
16F
100
AcDbEntity
  8
XARCH
100
AcDbLine
 10
543.301074
 20
1510.943726
 30
0.0
 11
530.389798
 21
1510.943726
 31
0.0
  0
LINE
  5
170
100
AcDbEntity
  8
XARCH
100
AcDbLine
 10
398.081876
 20
1645.055222
 30
0.0
 11
398.081876
 21
1621.152322
 31
0.0
  0
LINE
  5
171
100
AcDbEntity
  8
XARCH
100
AcDbLine
 10
398.081876
 20
1621.152322
 30
0.0
 11
391.644237
 21
1621.152322
 31
0.0
  0
LINE
  5
172
100
AcDbEntity
  8
XARCH
100
AcDbLine
 10
391.644237
 20
1621.152322
 30
0.0
 11
391.644237
 21
1615.301798
 31
0.0
  0
LINE
  5
173
100
AcDbEntity
  8
XARCH
100
AcDbLine
 10
391.644237
 20
1615.301798
 30
0.0
 11
368.03826
 21
1615.301798
 31
0.0
  0
LINE
  5
174
100
AcDbEntity
  8
XARCH
100
AcDbLine
 10
368.03826
 20
1615.301798
 30
0.0
 11
368.03826
 21
1645.055222
 31
0.0
  0
LINE
  5
175
100
AcDbEntity
  8
XARCH
100
AcDbLine
 10
368.03826
 20
1645.055222
 30
0.0
 11
398.081876
 21
1645.055222
 31
0.0
  0
LINE
  5
176
100
AcDbEntity
  8
XARCH
100
AcDbLine
 10
512.239877
 20
1441.1113
 30
0.0
 11
519.924465
 21
1441.1113
 31
0.0
  0
LINE
  5
177
100
AcDbEntity
  8
XARCH
100
AcDbLine
 10
512.239877
 20
1422.305773
 30
0.0
 11
519.924465
 21
1422.305773
 31
0.0
  0
LINE
  5
178
100
AcDbEntity
  8
XARCH
100
AcDbLine
 10
391.885765
 20
1504.585494
 30
0.0
 11
391.885765
 21
1464.182004
 31
0.0
  0
LINE
  5
179
100
AcDbEntity
  8
XARCH
100
AcDbLine
 10
391.885765
 20
1464.182004
 30
0.0
 11
401.272572
 21
1464.182004
 31
0.0
  0
LINE
  5
17A
100
AcDbEntity
  8
XARCH
100
AcDbLine
 10
401.272572
 20
1464.182004
 30
0.0
 11
401.272572
 21
1452.569798
 31
0.0
  0
LINE
  5
17B
100
AcDbEntity
  8
XARCH
100
AcDbLine
 10
401.272572
 20
1452.569798
 30
0.0
 11
392.728701
 21
1452.569798
 31
0.0
  0
LINE
  5
17C
100
AcDbEntity
  8
XARCH
100
AcDbLine
 10
392.728701
 20
1452.569798
 30
0.0
 11
392.728701
 21
1375.718064
 31
0.0
  0
LINE
  5
17D
100
AcDbEntity
  8
XARCH
100
AcDbLine
 10
368.664474
 20
1375.718064
 30
0.0
 11
511.771644
 21
1375.718064
 31
0.0
  0
LINE
  5
17E
100
AcDbEntity
  8
XARCH
100
AcDbLine
 10
511.771644
 20
1375.718064
 30
0.0
 11
511.771644
 21
1381.521473
 31
0.0
  0
LINE
  5
17F
100
AcDbEntity
  8
XARCH
100
AcDbLine
 10
511.771644
 20
1381.521473
 30
0.0
 11
518.394261
 21
1381.521473
 31
0.0
  0
LINE
  5
180
100
AcDbEntity
  8
XARCH
100
AcDbLine
 10
518.394261
 20
1381.521473
 30
0.0
 11
518.394261
 21
1348.224771
 31
0.0
  0
LINE
  5
181
100
AcDbEntity
  8
XARCH
100
AcDbLine
 10
518.394261
 20
1348.224771
 30
0.0
 11
498.899695
 21
1348.224771
 31
0.0
  0
LINE
  5
182
100
AcDbEntity
  8
XARCH
100
AcDbLine
 10
498.899695
 20
1348.224771
 30
0.0
 11
498.899695
 21
1338.06311
 31
0.0
  0
LINE
  5
183
100
AcDbEntity
  8
XARCH
100
AcDbLine
 10
498.899695
 20
1338.06311
 30
0.0
 11
496.117091
 21
1338.06311
 31
0.0
  0
LINE
  5
184
100
AcDbEntity
  8
XARCH
100
AcDbLine
 10
496.117091
 20
1338.06311
 30
0.0
 11
496.117091
 21
1296.901063
 31
0.0
  0
LINE
  5
185
100
AcDbEntity
  8
XARCH
100
AcDbLine
 10
496.117091
 20
1296.901063
 30
0.0
 11
499.555194
 21
1296.901063
 31
0.0
  0
LINE
  5
186
100
AcDbEntity
  8
XARCH
100
AcDbLine
 10
499.555194
 20
1296.901063
 30
0.0
 11
499.555194
 21
1287.688458
 31
0.0
  0
LINE
  5
187
100
AcDbEntity
  8
XARCH
100
AcDbLine
 10
499.555194
 20
1287.688458
 30
0.0
 11
518.548876
 21
1287.688458
 31
0.0
  0
LINE
  5
188
100
AcDbEntity
  8
XARCH
100
AcDbLine
 10
518.548876
 20
1287.688458
 30
0.0
 11
518.548876
 21
1260.622749
 31
0.0
  0
LINE
  5
189
100
AcDbEntity
  8
XARCH
100
AcDbLine
 10
518.548876
 20
1260.622749
 30
0.0
 11
524.679458
 21
1260.622749
 31
0.0
  0
LINE
  5
18A
100
AcDbEntity
  8
XARCH
100
AcDbLine
 10
524.679458
 20
1260.622749
 30
0.0
 11
524.679458
 21
1249.712084
 31
0.0
  0
LINE
  5
19C
100
AcDbEntity
  8
XARCH
100
AcDbLine
 10
384.352226
 20
879.939
 30
0.0
 11
384.352226
 21
794.267353
 31
0.0
  0
LINE
  5
19D
100
AcDbEntity
  8
XARCH
100
AcDbLine
 10
384.352226
 20
794.267353
 30
0.0
 11
430.561318
 21
794.267353
 31
0.0
  0
LINE
  5
19E
100
AcDbEntity
  8
XARCH
100
AcDbLine
 10
430.561318
 20
794.267353
 30
0.0
 11
430.561318
 21
784.941746
 31
0.0
  0
LINE
  5
19F
100
AcDbEntity
  8
XARCH
100
AcDbLine
 10
430.561318
 20
784.941746
 30
0.0
 11
408.873305
 21
784.941746
 31
0.0
  0
LINE
  5
1A0
100
AcDbEntity
  8
XARCH
100
AcDbLine
 10
408.873305
 20
784.941746
 30
0.0
 11
408.873305
 21
770.078079
 31
0.0
  0
LINE
  5
1A1
100
AcDbEntity
  8
XARCH
100
AcDbLine
 10
408.873305
 20
770.078079
 30
0.0
 11
368.664474
 21
770.078079
 31
0.0
  0
LINE
  5
1A2
100
AcDbEntity
  8
XARCH
100
AcDbLine
 10
368.664474
 20
770.078079
 30
0.0
 11
368.664474
 21
1480.596626
 31
0.0
  0
LINE
  5
1A3
100
AcDbEntity
  8
XARCH
100
AcDbLine
 10
368.664474
 20
1480.596626
 30
0.0
 11
366.641465
 21
1480.596626
 31
0.0
  0
LINE
  5
1A4
100
AcDbEntity
  8
XARCH
100
AcDbLine
 10
366.641465
 20
1480.596626
 30
0.0
 11
366.641465
 21
1504.585494
 31
0.0
  0
LINE
  5
1A5
100
AcDbEntity
  8
XARCH
100
AcDbLine
 10
366.641465
 20
1504.585494
 30
0.0
 11
391.885765
 21
1504.585494
 31
0.0
  0
LINE
  5
1A6
100
AcDbEntity
  8
XARCH
100
AcDbLine
 10
368.664474
 20
1146.018995
 30
0.0
 11
267.010979
 21
1146.018995
 31
0.0
  0
LINE
  5
1A7
100
AcDbEntity
  8
XARCH
100
AcDbLine
 10
267.010979
 20
1146.018995
 30
0.0
 11
267.010979
 21
903.503032
 31
0.0
  0
LINE
  5
1A8
100
AcDbEntity
  8
XARCH
100
AcDbLine
 10
267.010979
 20
903.503032
 30
0.0
 11
368.664474
 21
903.503032
 31
0.0
  0
LINE
  5
1A9
100
AcDbEntity
  8
XARCH
100
AcDbLine
 10
368.664474
 20
1137.479094
 30
0.0
 11
274.587833
 21
1137.479094
 31
0.0
  0
LINE
  5
1AA
100
AcDbEntity
  8
XARCH
100
AcDbLine
 10
274.587833
 20
1137.479094
 30
0.0
 11
274.587833
 21
1032.167749
 31
0.0
  0
LINE
  5
1AB
100
AcDbEntity
  8
XARCH
100
AcDbLine
 10
274.587833
 20
1032.167749
 30
0.0
 11
368.664474
 21
1032.167749
 31
0.0
  0
LINE
  5
1AC
100
AcDbEntity
  8
XARCH
100
AcDbLine
 10
368.664474
 20
1018.216272
 30
0.0
 11
273.764616
 21
1018.216272
 31
0.0
  0
LINE
  5
1AD
100
AcDbEntity
  8
XARCH
100
AcDbLine
 10
273.764616
 20
1018.216272
 30
0.0
 11
273.764616
 21
913.959083
 31
0.0
  0
LINE
  5
1AE
100
AcDbEntity
  8
XARCH
100
AcDbLine
 10
273.764616
 20
913.959083
 30
0.0
 11
368.664474
 21
913.959083
 31
0.0
  0
LINE
  5
1AF
100
AcDbEntity
  8
XARCH
100
AcDbLine
 10
501.309468
 20
1366.507161
 30
0.0
 11
501.309468
 21
1362.624043
 31
0.0
  0
LINE
  5
1B0
100
AcDbEntity
  8
XARCH
100
AcDbLine
 10
501.309468
 20
1362.624043
 30
0.0
 11
488.451245
 21
1362.624043
 31
0.0
  0
LINE
  5
1B1
100
AcDbEntity
  8
XARCH
100
AcDbLine
 10
488.451245
 20
1362.624043
 30
0.0
 11
488.451245
 21
1357.543798
 31
0.0
  0
LINE
  5
1B2
100
AcDbEntity
  8
XARCH
100
AcDbLine
 10
488.451245
 20
1357.543798
 30
0.0
 11
390.484698
 21
1357.543798
 31
0.0
  0
LINE
  5
1B3
100
AcDbEntity
  8
XARCH
100
AcDbLine
 10
390.484698
 20
1357.543798
 30
0.0
 11
390.484698
 21
1278.424901
 31
0.0
  0
LINE
  5
1B4
100
AcDbEntity
  8
XARCH
100
AcDbLine
 10
390.484698
 20
1278.424901
 30
0.0
 11
490.432829
 21
1278.424901
 31
0.0
  0
LINE
  5
1B5
100
AcDbEntity
  8
XARCH
100
AcDbLine
 10
490.432829
 20
1278.424901
 30
0.0
 11
490.432829
 21
1273.107686
 31
0.0
  0
LINE
  5
1B6
100
AcDbEntity
  8
XARCH
100
AcDbLine
 10
490.432829
 20
1273.107686
 30
0.0
 11
502.903965
 21
1273.107686
 31
0.0
  0
LINE
  5
1B7
100
AcDbEntity
  8
XARCH
100
AcDbLine
 10
502.903965
 20
1273.107686
 30
0.0
 11
502.903965
 21
1270.12857
 31
0.0
  0
LINE
  5
1B8
100
AcDbEntity
  8
XARCH
100
AcDbLine
 10
502.903965
 20
1270.12857
 30
0.0
 11
392.177489
 21
1270.12857
 31
0.0
  0
LINE
  5
1B9
100
AcDbEntity
  8
XARCH
100
AcDbLine
 10
392.177489
 20
1270.12857
 30
0.0
 11
392.177489
 21
1275.641049
 31
0.0
  0
LINE
  5
1BA
100
AcDbEntity
  8
XARCH
100
AcDbLine
 10
392.177489
 20
1275.641049
 30
0.0
 11
385.462515
 21
1275.641049
 31
0.0
  0
LINE
  5
1BB
100
AcDbEntity
  8
XARCH
100
AcDbLine
 10
385.462515
 20
1275.641049
 30
0.0
 11
385.462515
 21
1366.507161
 31
0.0
  0
LINE
  5
1BC
100
AcDbEntity
  8
XARCH
100
AcDbLine
 10
385.462515
 20
1366.507161
 30
0.0
 11
501.309468
 21
1366.507161
 31
0.0
  0
LINE
  5
1BD
100
AcDbEntity
  8
XARCH
100
AcDbLine
 10
486.9122
 20
1354.031639
 30
0.0
 11
486.9122
 21
1347.949779
 31
0.0
  0
LINE
  5
1BE
100
AcDbEntity
  8
XARCH
100
AcDbLine
 10
486.9122
 20
1347.949779
 30
0.0
 11
492.378737
 21
1347.949779
 31
0.0
  0
LINE
  5
1BF
100
AcDbEntity
  8
XARCH
100
AcDbLine
 10
492.378737
 20
1347.949779
 30
0.0
 11
492.378737
 21
1288.554724
 31
0.0
  0
LINE
  5
1C0
100
AcDbEntity
  8
XARCH
100
AcDbLine
 10
492.378737
 20
1288.554724
 30
0.0
 11
486.407081
 21
1288.554724
 31
0.0
  0
LINE
  5
1C1
100
AcDbEntity
  8
XARCH
100
AcDbLine
 10
486.407081
 20
1288.554724
 30
0.0
 11
486.407081
 21
1281.744482
 31
0.0
  0
LINE
  5
1C2
100
AcDbEntity
  8
XARCH
100
AcDbLine
 10
486.407081
 20
1281.744482
 30
0.0
 11
390.484698
 21
1281.744482
 31
0.0
  0
LINE
  5
1C3
100
AcDbEntity
  8
XARCH
100
AcDbLine
 10
390.484698
 20
1354.031639
 30
0.0
 11
486.9122
 21
1354.031639
 31
0.0
  0
LINE
  5
1C4
100
AcDbEntity
  8
XARCH
100
AcDbLine
 10
2322.188164
 20
1607.43095
 30
0.0
 11
2304.286359
 21
1594.206764
 31
0.0
  0
LINE
  5
1C5
100
AcDbEntity
  8
XARCH
100
AcDbLine
 10
2304.286359
 20
1594.206764
 30
0.0
 11
2293.833448
 21
1608.315428
 31
0.0
  0
LINE
  5
1C6
100
AcDbEntity
  8
XARCH
100
AcDbLine
 10
2293.833448
 20
1608.315428
 30
0.0
 11
2285.678062
 21
1608.315428
 31
0.0
  0
LINE
  5
1C7
100
AcDbEntity
  8
XARCH
100
AcDbLine
 10
2285.678062
 20
1608.315428
 30
0.0
 11
2285.678062
 21
1250.235633
 31
0.0
  0
LINE
  5
1C8
100
AcDbEntity
  8
XARCH
100
AcDbLine
 10
2285.678062
 20
1250.235633
 30
0.0
 11
2352.797005
 21
1250.235633
 31
0.0
  0
LINE
  5
1C9
100
AcDbEntity
  8
XARCH
100
AcDbLine
 10
2352.797005
 20
1250.235633
 30
0.0
 11
2352.797005
 21
1217.491031
 31
0.0
  0
LINE
  5
1CA
100
AcDbEntity
  8
XARCH
100
AcDbLine
 10
2352.797005
 20
1217.491031
 30
0.0
 11
2344.436525
 21
1217.491031
 31
0.0
  0
LINE
  5
1CB
100
AcDbEntity
  8
XARCH
100
AcDbLine
 10
2344.436525
 20
1217.491031
 30
0.0
 11
2344.436525
 21
1242.440866
 31
0.0
  0
LINE
  5
1CC
100
AcDbEntity
  8
XARCH
100
AcDbLine
 10
2344.436525
 20
1242.440866
 30
0.0
 11
2262.985919
 21
1242.440866
 31
0.0
  0
LINE
  5
1CD
100
AcDbEntity
  8
XARCH
100
AcDbLine
 10
2262.985919
 20
1242.440866
 30
0.0
 11
2262.985919
 21
1218.389627
 31
0.0
  0
LINE
  5
1CE
100
AcDbEntity
  8
XARCH
100
AcDbLine
 10
2262.985919
 20
1218.389627
 30
0.0
 11
2255.492083
 21
1218.389627
 31
0.0
  0
LINE
  5
1CF
100
AcDbEntity
  8
XARCH
100
AcDbLine
 10
2255.492083
 20
1218.389627
 30
0.0
 11
2255.492083
 21
1413.265653
 31
0.0
  0
LINE
  5
1D0
100
AcDbEntity
  8
XARCH
100
AcDbLine
 10
2255.492083
 20
1413.265653
 30
0.0
 11
2242.807892
 21
1413.265653
 31
0.0
  0
LINE
  5
1D1
100
AcDbEntity
  8
XARCH
100
AcDbLine
 10
2242.807892
 20
1413.265653
 30
0.0
 11
2242.807892
 21
1432.268637
 31
0.0
  0
LINE
  5
1D2
100
AcDbEntity
  8
XARCH
100
AcDbLine
 10
2242.807892
 20
1432.268637
 30
0.0
 11
2199.062248
 21
1432.268637
 31
0.0
  0
LINE
  5
1D3
100
AcDbEntity
  8
XARCH
100
AcDbLine
 10
2199.062248
 20
1432.268637
 30
0.0
 11
2199.062248
 21
1547.575478
 31
0.0
  0
LINE
  5
1D4
100
AcDbEntity
  8
XARCH
100
AcDbLine
 10
2207.936014
 20
1547.575478
 30
0.0
 11
2207.936014
 21
1436.696256
 31
0.0
  0
LINE
  5
1D5
100
AcDbEntity
  8
XARCH
100
AcDbLine
 10
2207.936014
 20
1436.696256
 30
0.0
 11
2250.013124
 21
1436.696256
 31
0.0
  0
LINE
  5
1D6
100
AcDbEntity
  8
XARCH
100
AcDbLine
 10
2250.013124
 20
1436.696256
 30
0.0
 11
2250.013124
 21
1614.185651
 31
0.0
  0
LINE
  5
1D7
100
AcDbEntity
  8
XARCH
100
AcDbLine
 10
2257.664544
 20
1614.185651
 30
0.0
 11
2153.270266
 21
1614.185651
 31
0.0
  0
LINE
  5
1D8
100
AcDbEntity
  8
XARCH
100
AcDbLine
 10
2153.270266
 20
1614.185651
 30
0.0
 11
2153.270266
 21
1555.215193
 31
0.0
  0
LINE
  5
1D9
100
AcDbEntity
  8
XARCH
100
AcDbLine
 10
2153.270266
 20
1555.215193
 30
0.0
 11
2076.863453
 21
1535.575427
 31
0.0
  0
LINE
  5
1DA
100
AcDbEntity
  8
XARCH
100
AcDbLine
 10
2076.863453
 20
1535.575427
 30
0.0
 11
2076.863453
 21
1481.555951
 31
0.0
  0
LINE
  5
1DB
100
AcDbEntity
  8
XARCH
100
AcDbLine
 10
2082.310554
 20
1479.730798
 30
0.0
 11
2082.310554
 21
1536.975561
 31
0.0
  0
LINE
  5
1DC
100
AcDbEntity
  8
XARCH
100
AcDbLine
 10
2044.393275
 20
1436.885874
 30
0.0
 11
2044.393275
 21
1413.73294
 31
0.0
  0
LINE
  5
1DD
100
AcDbEntity
  8
XARCH
100
AcDbLine
 10
2044.393275
 20
1413.73294
 30
0.0
 11
2022.124348
 21
1413.73294
 31
0.0
  0
LINE
  5
1DE
100
AcDbEntity
  8
XARCH
100
AcDbLine
 10
2022.124348
 20
1413.73294
 30
0.0
 11
2022.124348
 21
1548.166183
 31
0.0
  0
LINE
  5
1DF
100
AcDbEntity
  8
XARCH
100
AcDbLine
 10
2022.124348
 20
1548.166183
 30
0.0
 11
2125.846701
 21
1548.166183
 31
0.0
  0
LINE
  5
1E0
100
AcDbEntity
  8
XARCH
100
AcDbLine
 10
2292.018116
 20
1642.955496
 30
0.0
 11
2149.827889
 21
1642.955496
 31
0.0
  0
LINE
  5
1E1
100
AcDbEntity
  8
XARCH
100
AcDbLine
 10
2149.827889
 20
1642.955496
 30
0.0
 11
2149.827889
 21
1637.636824
 31
0.0
  0
LINE
  5
1E2
100
AcDbEntity
  8
XARCH
100
AcDbLine
 10
2149.827889
 20
1637.636824
 30
0.0
 11
2083.62021
 21
1637.636824
 31
0.0
  0
LINE
  5
1E3
100
AcDbEntity
  8
XARCH
100
AcDbLine
 10
2083.62021
 20
1637.636824
 30
0.0
 11
2083.62021
 21
1624.518016
 31
0.0
  0
LINE
  5
1E4
100
AcDbEntity
  8
XARCH
100
AcDbLine
 10
2083.62021
 20
1624.518016
 30
0.0
 11
2117.869145
 21
1624.518016
 31
0.0
  0
LINE
  5
1E5
100
AcDbEntity
  8
XARCH
100
AcDbLine
 10
2117.869145
 20
1624.518016
 30
0.0
 11
2117.869145
 21
1614.909779
 31
0.0
  0
LINE
  5
1E6
100
AcDbEntity
  8
XARCH
100
AcDbLine
 10
2117.869145
 20
1614.909779
 30
0.0
 11
2144.826503
 21
1614.909779
 31
0.0
  0
LINE
  5
1E7
100
AcDbEntity
  8
XARCH
100
AcDbLine
 10
2144.826503
 20
1614.909779
 30
0.0
 11
2144.826503
 21
1559.44025
 31
0.0
  0
LINE
  5
1E8
100
AcDbEntity
  8
XARCH
100
AcDbLine
 10
2144.826503
 20
1559.44025
 30
0.0
 11
2023.045783
 21
1559.44025
 31
0.0
  0
LINE
  5
1E9
100
AcDbEntity
  8
XARCH
100
AcDbLine
 10
2023.045783
 20
1559.44025
 30
0.0
 11
2023.045783
 21
1577.622343
 31
0.0
  0
LINE
  5
1EA
100
AcDbEntity
  8
XARCH
100
AcDbLine
 10
2023.045783
 20
1577.622343
 30
0.0
 11
2012.881929
 21
1577.622343
 31
0.0
  0
LINE
  5
1EB
100
AcDbEntity
  8
XARCH
100
AcDbLine
 10
2012.881929
 20
1577.622343
 30
0.0
 11
2012.881929
 21
1572.349482
 31
0.0
  0
LINE
  5
1EC
100
AcDbEntity
  8
XARCH
100
AcDbLine
 10
2012.881929
 20
1572.349482
 30
0.0
 11
2008.274246
 21
1572.349482
 31
0.0
  0
LINE
  5
1ED
100
AcDbEntity
  8
XARCH
100
AcDbLine
 10
2008.274246
 20
1572.349482
 30
0.0
 11
2008.274246
 21
1425.068641
 31
0.0
  0
LINE
  5
1EE
100
AcDbEntity
  8
XARCH
100
AcDbLine
 10
2008.274246
 20
1425.068641
 30
0.0
 11
1971.275623
 21
1425.068641
 31
0.0
  0
LINE
  5
1EF
100
AcDbEntity
  8
XARCH
100
AcDbLine
 10
1971.275623
 20
1425.068641
 30
0.0
 11
1971.275623
 21
1573.612628
 31
0.0
  0
LINE
  5
1F0
100
AcDbEntity
  8
XARCH
100
AcDbLine
 10
1971.275623
 20
1573.612628
 30
0.0
 11
1945.236522
 21
1573.612628
 31
0.0
  0
LINE
  5
1F1
100
AcDbEntity
  8
XARCH
100
AcDbLine
 10
1945.236522
 20
1573.612628
 30
0.0
 11
1945.236522
 21
1561.900318
 31
0.0
  0
LINE
  5
1F2
100
AcDbEntity
  8
XARCH
100
AcDbLine
 10
1945.236522
 20
1465.584567
 30
0.0
 11
1963.231652
 21
1465.584567
 31
0.0
  0
LINE
  5
1F3
100
AcDbEntity
  8
XARCH
100
AcDbLine
 10
1963.231652
 20
1465.584567
 30
0.0
 11
1963.231652
 21
1424.894893
 31
0.0
  0
LINE
  5
1F4
100
AcDbEntity
  8
XARCH
100
AcDbLine
 10
1963.231652
 20
1424.894893
 30
0.0
 11
1945.177308
 21
1424.894893
 31
0.0
  0
LINE
  5
1F5
100
AcDbEntity
  8
XARCH
100
AcDbLine
 10
1945.177308
 20
1424.894893
 30
0.0
 11
1945.177308
 21
1413.675824
 31
0.0
  0
LINE
  5
1F6
100
AcDbEntity
  8
XARCH
100
AcDbLine
 10
1945.177308
 20
1413.675824
 30
0.0
 11
2015.695974
 21
1413.675824
 31
0.0
  0
LINE
  5
1F7
100
AcDbEntity
  8
XARCH
100
AcDbLine
 10
2015.695974
 20
1413.675824
 30
0.0
 11
2015.695974
 21
1400.119185
 31
0.0
  0
LINE
  5
1F8
100
AcDbEntity
  8
XARCH
100
AcDbLine
 10
2015.695974
 20
1400.119185
 30
0.0
 11
2029.699312
 21
1400.119185
 31
0.0
  0
LINE
  5
1F9
100
AcDbEntity
  8
XARCH
100
AcDbLine
 10
2029.699312
 20
1400.119185
 30
0.0
 11
2029.699312
 21
1413.73294
 31
0.0
  0
LINE
  5
1FA
100
AcDbEntity
  8
XARCH
100
AcDbLine
 10
1945.236522
 20
1571.033569
 30
0.0
 11
1905.415534
 21
1571.033569
 31
0.0
  0
LINE
  5
1FB
100
AcDbEntity
  8
XARCH
100
AcDbLine
 10
1905.415534
 20
1571.033569
 30
0.0
 11
1905.415534
 21
1528.063005
 31
0.0
  0
LINE
  5
1FC
100
AcDbEntity
  8
XARCH
100
AcDbLine
 10
1905.415534
 20
1528.063005
 30
0.0
 11
1900.31351
 21
1528.063005
 31
0.0
  0
LINE
  5
1FD
100
AcDbEntity
  8
XARCH
100
AcDbLine
 10
1900.31351
 20
1528.063005
 30
0.0
 11
1900.31351
 21
1465.985984
 31
0.0
  0
LINE
  5
1FE
100
AcDbEntity
  8
XARCH
100
AcDbLine
 10
1900.31351
 20
1465.985984
 30
0.0
 11
1909.980186
 21
1465.985984
 31
0.0
  0
LINE
  5
1FF
100
AcDbEntity
  8
XARCH
100
AcDbLine
 10
1909.980186
 20
1465.985984
 30
0.0
 11
1909.980186
 21
1565.193935
 31
0.0
  0
LINE
  5
200
100
AcDbEntity
  8
XARCH
100
AcDbLine
 10
1909.980186
 20
1565.193935
 30
0.0
 11
1951.236522
 21
1554.566681
 31
0.0
  0
LINE
  5
201
100
AcDbEntity
  8
XARCH
100
AcDbLine
 10
1951.236522
 20
1560.336907
 30
0.0
 11
1910.185262
 21
1571.033569
 31
0.0
  0
LINE
  5
202
100
AcDbEntity
  8
XARCH
100
AcDbLine
 10
1864.524698
 20
1527.983164
 30
0.0
 11
1864.524698
 21
1466.096
 31
0.0
  0
LINE
  5
203
100
AcDbEntity
  8
XARCH
100
AcDbLine
 10
1864.524698
 20
1466.096
 30
0.0
 11
1860.682792
 21
1466.096
 31
0.0
  0
LINE
  5
204
100
AcDbEntity
  8
XARCH
100
AcDbLine
 10
1864.524698
 20
1524.528386
 30
0.0
 11
1900.31351
 21
1524.528386
 31
0.0
  0
LINE
  5
205
100
AcDbEntity
  8
XARCH
100
AcDbLine
 10
2199.062248
 20
1436.885874
 30
0.0
 11
2159.002114
 21
1436.885874
 31
0.0
  0
LINE
  5
206
100
AcDbEntity
  8
XARCH
100
AcDbLine
 10
2159.002114
 20
1549.310958
 30
0.0
 11
2159.002114
 21
1435.41086
 31
0.0
  0
LINE
  5
207
100
AcDbEntity
  8
XARCH
100
AcDbLine
 10
2147.537491
 20
1435.41086
 30
0.0
 11
2147.537491
 21
1549.310958
 31
0.0
  0
LINE
  5
208
100
AcDbEntity
  8
XARCH
100
AcDbLine
 10
2245.686464
 20
1642.955496
 30
0.0
 11
2245.686464
 21
1614.185651
 31
0.0
  0
LINE
  5
209
100
AcDbEntity
  8
XARCH
100
AcDbLine
 10
2176.602878
 20
1642.955496
 30
0.0
 11
2176.602878
 21
1614.185651
 31
0.0
  0
LINE
  5
20A
100
AcDbEntity
  8
XARCH
100
AcDbLine
 10
2257.664544
 20
1614.185651
 30
0.0
 11
2257.664544
 21
1436.580569
 31
0.0
  0
LINE
  5
20B
100
AcDbEntity
  8
XARCH
100
AcDbLine
 10
2257.664544
 20
1449.438413
 30
0.0
 11
2285.678062
 21
1449.438413
 31
0.0
  0
LINE
  5
20C
100
AcDbEntity
  8
XARCH
100
AcDbLine
 10
2257.664544
 20
1518.523966
 30
0.0
 11
2285.678062
 21
1518.523966
 31
0.0
  0
LINE
  5
20D
100
AcDbEntity
  8
XARCH
100
AcDbLine
 10
2257.664544
 20
1529.076306
 30
0.0
 11
2285.678062
 21
1529.076306
 31
0.0
  0
LINE
  5
20E
100
AcDbEntity
  8
XARCH
100
AcDbLine
 10
2257.664544
 20
1600.943404
 30
0.0
 11
2285.678062
 21
1600.943404
 31
0.0
  0
LINE
  5
20F
100
AcDbEntity
  8
XARCH
100
AcDbLine
 10
2378.638697
 20
1515.835443
 30
0.0
 11
2358.463589
 21
1507.63916
 31
0.0
  0
LINE
  5
210
100
AcDbEntity
  8
XARCH
100
AcDbLine
 10
2358.463589
 20
1507.63916
 30
0.0
 11
2373.129761
 21
1471.940247
 31
0.0
  0
LINE
  5
211
100
AcDbEntity
  8
XARCH
100
AcDbLine
 10
2373.129761
 20
1471.940247
 30
0.0
 11
2394.375368
 21
1479.363524
 31
0.0
  0
LINE
  5
212
100
AcDbEntity
  8
XARCH
100
AcDbLine
 10
2290.60174
 20
1644.470005
 30
0.0
 11
2326.388269
 21
1679.401017
 31
0.0
  0
LINE
  5
213
100
AcDbEntity
  8
XARCH
100
AcDbLine
 10
2471.730519
 20
1382.860455
 30
0.0
 11
2537.263717
 21
1382.860455
 31
0.0
  0
LINE
  5
214
100
AcDbEntity
  8
XARCH
100
AcDbLine
 10
2537.263717
 20
1382.860455
 30
0.0
 11
2537.263717
 21
981.862373
 31
0.0
  0
LINE
  5
215
100
AcDbEntity
  8
XARCH
100
AcDbLine
 10
2537.263717
 20
981.862373
 30
0.0
 11
2446.625956
 21
981.862373
 31
0.0
  0
LINE
  5
216
100
AcDbEntity
  8
XARCH
100
AcDbLine
 10
2288.353658
 20
888.292227
 30
0.0
 11
2328.076202
 21
849.630953
 31
0.0
  0
ARC
  5
217
100
AcDbEntity
  8
XARCH
100
AcDbCircle
 10
1919.705953
 20
1296.187134
 30
0.0
 40
558.787424
100
AcDbArc
 50
8.923156
 51
43.298198
  0
ARC
  5
218
100
AcDbEntity
  8
XARCH
100
AcDbCircle
 10
1428.750411
 20
1775.163229
 30
0.0
 40
1290.502566
100
AcDbArc
 50
314.177241
 51
322.068247
  0
LINE
  5
219
100
AcDbEntity
  8
FIELDCHK
100
AcDbLine
 10
1939.436795
 20
984.377165
 30
0.0
 11
1946.030686
 21
974.050569
 31
0.0
  0
LINE
  5
21A
100
AcDbEntity
  8
FIELDCHK
100
AcDbLine
 10
1946.030686
 20
974.050569
 30
0.0
 11
1938.190709
 21
969.434744
 31
0.0
  0
LINE
  5
21B
100
AcDbEntity
  8
FIELDCHK
100
AcDbLine
 10
1938.190709
 20
969.434744
 30
0.0
 11
1938.190709
 21
933.741351
 31
0.0
  0
LINE
  5
21C
100
AcDbEntity
  8
FIELDCHK
100
AcDbLine
 10
1938.190709
 20
933.741351
 30
0.0
 11
1917.547512
 21
933.741351
 31
0.0
  0
LINE
  5
21D
100
AcDbEntity
  8
FIELDCHK
100
AcDbLine
 10
1917.547512
 20
933.741351
 30
0.0
 11
1917.547512
 21
881.073735
 31
0.0
  0
LINE
  5
21E
100
AcDbEntity
  8
FIELDCHK
100
AcDbLine
 10
1917.547512
 20
881.073735
 30
0.0
 11
1499.76311
 21
881.073735
 31
0.0
  0
LINE
  5
21F
100
AcDbEntity
  8
FIELDCHK
100
AcDbLine
 10
1499.76311
 20
881.073735
 30
0.0
 11
1499.76311
 21
933.722747
 31
0.0
  0
LINE
  5
220
100
AcDbEntity
  8
FIELDCHK
100
AcDbLine
 10
1499.76311
 20
933.722747
 30
0.0
 11
1476.276828
 21
933.722747
 31
0.0
  0
LINE
  5
221
100
AcDbEntity
  8
FIELDCHK
100
AcDbLine
 10
1476.276828
 20
933.722747
 30
0.0
 11
1476.276828
 21
978.426987
 31
0.0
  0
LINE
  5
222
100
AcDbEntity
  8
FIELDCHK
100
AcDbLine
 10
1476.276828
 20
978.426987
 30
0.0
 11
1466.44023
 21
978.426987
 31
0.0
  0
LINE
  5
223
100
AcDbEntity
  8
FIELDCHK
100
AcDbLine
 10
1466.44023
 20
978.426987
 30
0.0
 11
1466.44023
 21
984.377165
 31
0.0
  0
LINE
  5
224
100
AcDbEntity
  8
FIELDCHK
100
AcDbLine
 10
1466.44023
 20
984.377165
 30
0.0
 11
1475.057002
 21
984.377165
 31
0.0
  0
LINE
  5
225
100
AcDbEntity
  8
FIELDCHK
100
AcDbLine
 10
1520.888968
 20
946.869986
 30
0.0
 11
1508.802155
 21
930.072856
 31
0.0
  0
LINE
  5
226
100
AcDbEntity
  8
FIELDCHK
100
AcDbLine
 10
1508.802155
 20
930.072856
 30
0.0
 11
1561.753787
 21
898.676573
 31
0.0
  0
LINE
  5
227
100
AcDbEntity
  8
FIELDCHK
100
AcDbLine
 10
1561.753787
 20
898.676573
 30
0.0
 11
1571.741193
 21
918.518406
 31
0.0
  0
LINE
  5
22B
100
AcDbEntity
  8
FIELDCHK
100
AcDbLine
 10
1597.339621
 20
881.073735
 30
0.0
 11
1597.339621
 21
895.304684
 31
0.0
  0
LINE
  5
22C
100
AcDbEntity
  8
FIELDCHK
100
AcDbLine
 10
1597.339621
 20
895.304684
 30
0.0
 11
1547.455228
 21
895.304684
 31
0.0
  0
LINE
  5
22D
100
AcDbEntity
  8
FIELDCHK
100
AcDbLine
 10
1547.455228
 20
895.304684
 30
0.0
 11
1547.455228
 21
881.073735
 31
0.0
  0
LINE
  5
22E
100
AcDbEntity
  8
FIELDCHK
100
AcDbLine
 10
1867.530265
 20
881.073735
 30
0.0
 11
1867.530265
 21
894.526408
 31
0.0
  0
LINE
  5
22F
100
AcDbEntity
  8
FIELDCHK
100
AcDbLine
 10
1867.530265
 20
894.526408
 30
0.0
 11
1819.182912
 21
894.526408
 31
0.0
  0
LINE
  5
230
100
AcDbEntity
  8
FIELDCHK
100
AcDbLine
 10
1819.182912
 20
894.526408
 30
0.0
 11
1819.182912
 21
881.073735
 31
0.0
  0
LINE
  5
231
100
AcDbEntity
  8
FIELDCHK
100
AcDbLine
 10
1896.257313
 20
948.689761
 30
0.0
 11
1910.732769
 21
927.707627
 31
0.0
  0
LINE
  5
232
100
AcDbEntity
  8
FIELDCHK
100
AcDbLine
 10
1910.732769
 20
927.707627
 30
0.0
 11
1859.10053
 21
898.463443
 31
0.0
  0
LINE
  5
233
100
AcDbEntity
  8
FIELDCHK
100
AcDbLine
 10
1859.10053
 20
898.463443
 30
0.0
 11
1846.972853
 21
920.442351
 31
0.0
  0
LINE
  5
234
100
AcDbEntity
  8
XARCH
100
AcDbLine
 10
1591.97618
 20
1170.661463
 30
0.0
 11
1573.164396
 21
1160.071032
 31
0.0
  0
LINE
  5
235
100
AcDbEntity
  8
XARCH
100
AcDbLine
 10
1441.78992
 20
1086.111412
 30
0.0
 11
1394.279468
 21
1086.111412
 31
0.0
  0
LINE
  5
236
100
AcDbEntity
  8
XARCH
100
AcDbLine
 10
1822.659231
 20
1170.917884
 30
0.0
 11
1841.282185
 21
1160.005936
 31
0.0
  0
LINE
  5
237
100
AcDbEntity
  8
XARCH
100
AcDbLine
 10
2018.771553
 20
1080.703353
 30
0.0
 11
1976.624512
 21
1080.703353
 31
0.0
  0
LINE
  5
238
100
AcDbEntity
  8
XARCH
100
AcDbLine
 10
2028.88086
 20
1271.547355
 30
0.0
 11
2028.88086
 21
1095.570952
 31
0.0
  0
LINE
  5
239
100
AcDbEntity
  8
FIELDCHK
100
AcDbLine
 10
2028.88086
 20
1095.570952
 30
0.0
 11
2027.736542
 21
1095.570952
 31
0.0
  0
LINE
  5
23A
100
AcDbEntity
  8
FIELDCHK
100
AcDbLine
 10
2027.736542
 20
1095.570952
 30
0.0
 11
2027.736542
 21
971.31854
 31
0.0
  0
LINE
  5
23B
100
AcDbEntity
  8
FIELDCHK
100
AcDbLine
 10
2027.736542
 20
971.31854
 30
0.0
 11
2032.964823
 21
971.31854
 31
0.0
  0
LINE
  5
23C
100
AcDbEntity
  8
FIELDCHK
100
AcDbLine
 10
2032.964823
 20
971.31854
 30
0.0
 11
2032.964823
 21
956.252766
 31
0.0
  0
LINE
  5
23D
100
AcDbEntity
  8
FIELDCHK
100
AcDbLine
 10
2032.964823
 20
956.252766
 30
0.0
 11
2046.007684
 21
956.252766
 31
0.0
  0
LINE
  5
23E
100
AcDbEntity
  8
FIELDCHK
100
AcDbLine
 10
2046.007684
 20
956.252766
 30
0.0
 11
2046.007684
 21
890.906588
 31
0.0
  0
LINE
  5
23F
100
AcDbEntity
  8
FIELDCHK
100
AcDbLine
 10
2046.007684
 20
890.906588
 30
0.0
 11
2020.746898
 21
890.906588
 31
0.0
  0
LINE
  5
240
100
AcDbEntity
  8
FIELDCHK
100
AcDbLine
 10
2020.746898
 20
890.906588
 30
0.0
 11
2020.746898
 21
982.739717
 31
0.0
  0
LINE
  5
241
100
AcDbEntity
  8
FIELDCHK
100
AcDbLine
 10
2020.746898
 20
982.739717
 30
0.0
 11
2014.354975
 21
982.739717
 31
0.0
  0
LINE
  5
242
100
AcDbEntity
  8
FIELDCHK
100
AcDbLine
 10
2014.354975
 20
982.739717
 30
0.0
 11
2014.354975
 21
989.266196
 31
0.0
  0
LINE
  5
243
100
AcDbEntity
  8
FIELDCHK
100
AcDbLine
 10
2014.354975
 20
989.266196
 30
0.0
 11
2018.771553
 21
989.266196
 31
0.0
  0
LINE
  5
244
100
AcDbEntity
  8
FIELDCHK
100
AcDbLine
 10
2018.771553
 20
989.266196
 30
0.0
 11
2018.771553
 21
1111.510275
 31
0.0
  0
LINE
  5
245
100
AcDbEntity
  8
XARCH
100
AcDbLine
 10
2018.771553
 20
1111.510275
 30
0.0
 11
1868.808668
 21
1198.875435
 31
0.0
  0
LINE
  5
246
100
AcDbEntity
  8
XARCH
100
AcDbLine
 10
1868.612118
 20
1198.875435
 30
0.0
 11
1859.663488
 21
1198.875435
 31
0.0
  0
LINE
  5
247
100
AcDbEntity
  8
FIELDCHK
100
AcDbLine
 10
1875.091283
 20
1207.894024
 30
0.0
 11
1849.430123
 21
1207.894024
 31
0.0
  0
LINE
  5
248
100
AcDbEntity
  8
FIELDCHK
100
AcDbLine
 10
1875.091283
 20
1207.894024
 30
0.0
 11
1875.091283
 21
1211.253118
 31
0.0
  0
LINE
  5
249
100
AcDbEntity
  8
FIELDCHK
100
AcDbLine
 10
1875.091283
 20
1211.253118
 30
0.0
 11
1881.337288
 21
1211.253118
 31
0.0
  0
LINE
  5
24A
100
AcDbEntity
  8
FIELDCHK
100
AcDbLine
 10
1881.337288
 20
1211.253118
 30
0.0
 11
1881.337288
 21
1200.074476
 31
0.0
  0
LINE
  5
24B
100
AcDbEntity
  8
FIELDCHK
100
AcDbLine
 10
1881.337288
 20
1200.074476
 30
0.0
 11
1884.736057
 21
1198.389412
 31
0.0
  0
LINE
  5
24C
100
AcDbEntity
  8
XARCH
100
AcDbLine
 10
1884.736057
 20
1198.389412
 30
0.0
 11
1923.883056
 21
1198.389412
 31
0.0
  0
LINE
  5
24D
100
AcDbEntity
  8
XARCH
100
AcDbLine
 10
1923.883056
 20
1198.389412
 30
0.0
 11
1923.883056
 21
1247.404023
 31
0.0
  0
LINE
  5
24E
100
AcDbEntity
  8
XARCH
100
AcDbLine
 10
1923.883056
 20
1247.404023
 30
0.0
 11
1880.776263
 21
1247.404023
 31
0.0
  0
LINE
  5
24F
100
AcDbEntity
  8
FIELDCHK
100
AcDbLine
 10
1880.776263
 20
1247.404023
 30
0.0
 11
1880.776263
 21
1242.146665
 31
0.0
  0
LINE
  5
250
100
AcDbEntity
  8
FIELDCHK
100
AcDbLine
 10
1880.776263
 20
1242.146665
 30
0.0
 11
1875.496898
 21
1242.146665
 31
0.0
  0
LINE
  5
251
100
AcDbEntity
  8
FIELDCHK
100
AcDbLine
 10
1875.496898
 20
1242.146665
 30
0.0
 11
1875.496898
 21
1248.001536
 31
0.0
  0
LINE
  5
252
100
AcDbEntity
  8
XARCH
100
AcDbLine
 10
1875.496898
 20
1248.001536
 30
0.0
 11
1538.996898
 21
1248.001536
 31
0.0
  0
LINE
  5
253
100
AcDbEntity
  8
FIELDCHK
100
AcDbLine
 10
1538.996898
 20
1248.001536
 30
0.0
 11
1538.996898
 21
1239.590387
 31
0.0
  0
LINE
  5
254
100
AcDbEntity
  8
FIELDCHK
100
AcDbLine
 10
1538.996898
 20
1239.590387
 30
0.0
 11
1532.374811
 21
1239.590387
 31
0.0
  0
LINE
  5
255
100
AcDbEntity
  8
FIELDCHK
100
AcDbLine
 10
1532.374811
 20
1239.590387
 30
0.0
 11
1532.374811
 21
1248.51416
 31
0.0
  0
LINE
  5
256
100
AcDbEntity
  8
FIELDCHK
100
AcDbLine
 10
1532.374811
 20
1248.51416
 30
0.0
 11
1517.121146
 21
1248.51416
 31
0.0
  0
LINE
  5
257
100
AcDbEntity
  8
FIELDCHK
100
AcDbLine
 10
1517.121146
 20
1248.51416
 30
0.0
 11
1517.121146
 21
1245.737871
 31
0.0
  0
LINE
  5
258
100
AcDbEntity
  8
FIELDCHK
100
AcDbLine
 10
1517.121146
 20
1245.737871
 30
0.0
 11
1509.348045
 21
1245.737871
 31
0.0
  0
LINE
  5
259
100
AcDbEntity
  8
FIELDCHK
100
AcDbLine
 10
1509.348045
 20
1245.737871
 30
0.0
 11
1509.348045
 21
1206.305822
 31
0.0
  0
LINE
  5
25A
100
AcDbEntity
  8
FIELDCHK
100
AcDbLine
 10
1509.348045
 20
1206.305822
 30
0.0
 11
1540.281172
 21
1206.305822
 31
0.0
  0
LINE
  5
25B
100
AcDbEntity
  8
XARCH
100
AcDbLine
 10
1540.281172
 20
1206.305822
 30
0.0
 11
1540.281172
 21
1211.286222
 31
0.0
  0
LINE
  5
25C
100
AcDbEntity
  8
XARCH
100
AcDbLine
 10
1540.281172
 20
1211.286222
 30
0.0
 11
1547.863282
 21
1211.286222
 31
0.0
  0
LINE
  5
25D
100
AcDbEntity
  8
XARCH
100
AcDbLine
 10
1547.863282
 20
1211.286222
 30
0.0
 11
1547.863282
 21
1200.097883
 31
0.0
  0
LINE
  5
25E
100
AcDbEntity
  8
XARCH
100
AcDbLine
 10
1547.863282
 20
1200.097883
 30
0.0
 11
1394.279468
 21
1116.905556
 31
0.0
  0
LINE
  5
25F
100
AcDbEntity
  8
FIELDCHK
100
AcDbLine
 10
1394.279468
 20
1116.905556
 30
0.0
 11
1394.279468
 21
984.133448
 31
0.0
  0
LINE
  5
260
100
AcDbEntity
  8
FIELDCHK
100
AcDbLine
 10
1394.279468
 20
991.427294
 30
0.0
 11
1399.122742
 21
991.427294
 31
0.0
  0
LINE
  5
261
100
AcDbEntity
  8
FIELDCHK
100
AcDbLine
 10
1399.122742
 20
991.427294
 30
0.0
 11
1399.122742
 21
984.133448
 31
0.0
  0
LINE
  5
262
100
AcDbEntity
  8
FIELDCHK
100
AcDbLine
 10
1399.122742
 20
984.133448
 30
0.0
 11
1393.746898
 21
984.133448
 31
0.0
  0
LINE
  5
263
100
AcDbEntity
  8
FIELDCHK
100
AcDbLine
 10
1393.746898
 20
984.133448
 30
0.0
 11
1393.746898
 21
891.831727
 31
0.0
  0
LINE
  5
264
100
AcDbEntity
  8
FIELDCHK
100
AcDbLine
 10
1393.746898
 20
891.831727
 30
0.0
 11
1366.652867
 21
891.831727
 31
0.0
  0
LINE
  5
265
100
AcDbEntity
  8
FIELDCHK
100
AcDbLine
 10
1366.652867
 20
891.831727
 30
0.0
 11
1366.652867
 21
958.14341
 31
0.0
  0
LINE
  5
266
100
AcDbEntity
  8
FIELDCHK
100
AcDbLine
 10
1366.652867
 20
958.14341
 30
0.0
 11
1381.262906
 21
958.14341
 31
0.0
  0
LINE
  5
267
100
AcDbEntity
  8
FIELDCHK
100
AcDbLine
 10
1381.262906
 20
958.14341
 30
0.0
 11
1381.262906
 21
1118.565028
 31
0.0
  0
LINE
  5
268
100
AcDbEntity
  8
FIELDCHK
100
AcDbLine
 10
1381.262906
 20
1118.565028
 30
0.0
 11
1266.94107
 21
1118.565028
 31
0.0
  0
LINE
  5
269
100
AcDbEntity
  8
FIELDCHK
100
AcDbLine
 10
1266.94107
 20
1118.565028
 30
0.0
 11
1266.94107
 21
1128.47896
 31
0.0
  0
LINE
  5
26A
100
AcDbEntity
  8
FIELDCHK
100
AcDbLine
 10
1266.94107
 20
1128.47896
 30
0.0
 11
1276.155905
 21
1128.47896
 31
0.0
  0
LINE
  5
26B
100
AcDbEntity
  8
FIELDCHK
100
AcDbLine
 10
1276.155905
 20
1128.47896
 30
0.0
 11
1276.155905
 21
1243.423158
 31
0.0
  0
LINE
  5
26C
100
AcDbEntity
  8
FIELDCHK
100
AcDbLine
 10
1276.155905
 20
1243.423158
 30
0.0
 11
1266.798516
 21
1243.423158
 31
0.0
  0
LINE
  5
26D
100
AcDbEntity
  8
FIELDCHK
100
AcDbLine
 10
1266.798516
 20
1243.423158
 30
0.0
 11
1266.798516
 21
1254.844221
 31
0.0
  0
LINE
  5
26E
100
AcDbEntity
  8
FIELDCHK
100
AcDbLine
 10
1266.798516
 20
1254.844221
 30
0.0
 11
1463.103069
 21
1254.844221
 31
0.0
  0
LINE
  5
26F
100
AcDbEntity
  8
FIELDCHK
100
AcDbLine
 10
1463.103069
 20
1254.844221
 30
0.0
 11
1463.103069
 21
1246.814374
 31
0.0
  0
LINE
  5
270
100
AcDbEntity
  8
FIELDCHK
100
AcDbLine
 10
1463.103069
 20
1246.814374
 30
0.0
 11
1450.051662
 21
1246.814374
 31
0.0
  0
LINE
  5
271
100
AcDbEntity
  8
FIELDCHK
100
AcDbLine
 10
1450.051662
 20
1246.814374
 30
0.0
 11
1450.051662
 21
1232.811604
 31
0.0
  0
LINE
  5
272
100
AcDbEntity
  8
FIELDCHK
100
AcDbLine
 10
1450.051662
 20
1232.811604
 30
0.0
 11
1443.041769
 21
1232.811604
 31
0.0
  0
LINE
  5
273
100
AcDbEntity
  8
FIELDCHK
100
AcDbLine
 10
1443.041769
 20
1232.811604
 30
0.0
 11
1443.041769
 21
1244.519646
 31
0.0
  0
LINE
  5
274
100
AcDbEntity
  8
FIELDCHK
100
AcDbLine
 10
1443.041769
 20
1244.519646
 30
0.0
 11
1348.931014
 21
1244.519646
 31
0.0
  0
LINE
  5
275
100
AcDbEntity
  8
FIELDCHK
100
AcDbLine
 10
1348.931014
 20
1244.519646
 30
0.0
 11
1348.931014
 21
1231.304926
 31
0.0
  0
LINE
  5
276
100
AcDbEntity
  8
FIELDCHK
100
AcDbLine
 10
1348.931014
 20
1231.304926
 30
0.0
 11
1342.497611
 21
1231.304926
 31
0.0
  0
LINE
  5
277
100
AcDbEntity
  8
FIELDCHK
100
AcDbLine
 10
1342.497611
 20
1231.304926
 30
0.0
 11
1342.497611
 21
1248.82885
 31
0.0
  0
LINE
  5
279
100
AcDbEntity
  8
FIELDCHK
100
AcDbLine
 10
1283.781272
 20
1248.82885
 30
0.0
 11
1283.781272
 21
1196.020627
 31
0.0
  0
LINE
  5
27A
100
AcDbEntity
  8
FIELDCHK
100
AcDbLine
 10
1283.781272
 20
1196.020627
 30
0.0
 11
1288.560094
 21
1196.020627
 31
0.0
  0
LINE
  5
27B
100
AcDbEntity
  8
FIELDCHK
100
AcDbLine
 10
1288.560094
 20
1196.020627
 30
0.0
 11
1288.560094
 21
1191.029715
 31
0.0
  0
LINE
  5
27C
100
AcDbEntity
  8
FIELDCHK
100
AcDbLine
 10
1288.560094
 20
1191.029715
 30
0.0
 11
1283.473043
 21
1191.029715
 31
0.0
  0
LINE
  5
27D
100
AcDbEntity
  8
FIELDCHK
100
AcDbLine
 10
1283.473043
 20
1191.029715
 30
0.0
 11
1283.473043
 21
1133.654095
 31
0.0
  0
LINE
  5
27E
100
AcDbEntity
  8
FIELDCHK
100
AcDbLine
 10
1283.473043
 20
1133.654095
 30
0.0
 11
1343.706912
 21
1133.654095
 31
0.0
  0
LINE
  5
27F
100
AcDbEntity
  8
FIELDCHK
100
AcDbLine
 10
1343.706912
 20
1133.654095
 30
0.0
 11
1343.706912
 21
1191.961832
 31
0.0
  0
LINE
  5
280
100
AcDbEntity
  8
FIELDCHK
100
AcDbLine
 10
1343.706912
 20
1191.961832
 30
0.0
 11
1320.605183
 21
1191.961832
 31
0.0
  0
LINE
  5
281
100
AcDbEntity
  8
FIELDCHK
100
AcDbLine
 10
1320.605183
 20
1191.961832
 30
0.0
 11
1320.605183
 21
1195.142488
 31
0.0
  0
LINE
  5
282
100
AcDbEntity
  8
FIELDCHK
100
AcDbLine
 10
1320.605183
 20
1195.142488
 30
0.0
 11
1348.336828
 21
1195.142488
 31
0.0
  0
LINE
  5
283
100
AcDbEntity
  8
FIELDCHK
100
AcDbLine
 10
1348.336828
 20
1195.142488
 30
0.0
 11
1348.336828
 21
1168.269646
 31
0.0
  0
LINE
  5
285
100
AcDbEntity
  8
FIELDCHK
100
AcDbLine
 10
1443.013523
 20
1168.269646
 30
0.0
 11
1443.013523
 21
1194.913685
 31
0.0
  0
LINE
  5
286
100
AcDbEntity
  8
FIELDCHK
100
AcDbLine
 10
1443.013523
 20
1194.913685
 30
0.0
 11
1448.783373
 21
1194.913685
 31
0.0
  0
LINE
  5
287
100
AcDbEntity
  8
FIELDCHK
100
AcDbLine
 10
1448.783373
 20
1194.913685
 30
0.0
 11
1448.783373
 21
1180.710735
 31
0.0
  0
LINE
  5
288
100
AcDbEntity
  8
FIELDCHK
100
AcDbLine
 10
1448.783373
 20
1180.710735
 30
0.0
 11
1486.486142
 21
1180.710735
 31
0.0
  0
LINE
  5
289
100
AcDbEntity
  8
FIELDCHK
100
AcDbLine
 10
1486.486142
 20
1180.710735
 30
0.0
 11
1503.281272
 21
1190.572449
 31
0.0
  0
LINE
  5
28A
100
AcDbEntity
  8
FIELDCHK
100
AcDbLine
 10
1503.281272
 20
1190.572449
 30
0.0
 11
1503.281272
 21
1247.470327
 31
0.0
  0
LINE
  5
28B
100
AcDbEntity
  8
FIELDCHK
100
AcDbLine
 10
1503.281272
 20
1247.470327
 30
0.0
 11
1498.793777
 21
1247.470327
 31
0.0
  0
LINE
  5
28C
100
AcDbEntity
  8
FIELDCHK
100
AcDbLine
 10
1498.793777
 20
1247.470327
 30
0.0
 11
1498.793777
 21
1254.188628
 31
0.0
  0
LINE
  5
28D
100
AcDbEntity
  8
FIELDCHK
100
AcDbLine
 10
1498.793777
 20
1254.188628
 30
0.0
 11
1510.886107
 21
1254.188628
 31
0.0
  0
LINE
  5
28E
100
AcDbEntity
  8
FIELDCHK
100
AcDbLine
 10
1510.886107
 20
1254.188628
 30
0.0
 11
1510.886107
 21
1258.021986
 31
0.0
  0
LINE
  5
28F
100
AcDbEntity
  8
XARCH
100
AcDbLine
 10
1510.886107
 20
1258.021986
 30
0.0
 11
1866.624106
 21
1258.021986
 31
0.0
  0
LINE
  5
290
100
AcDbEntity
  8
XARCH
100
AcDbLine
 10
1866.624106
 20
1258.021986
 30
0.0
 11
1866.624106
 21
1260.379484
 31
0.0
  0
LINE
  5
291
100
AcDbEntity
  8
XARCH
100
AcDbLine
 10
1866.624106
 20
1260.379484
 30
0.0
 11
1904.717743
 21
1260.379484
 31
0.0
  0
LINE
  5
292
100
AcDbEntity
  8
XARCH
100
AcDbLine
 10
1904.717743
 20
1260.379484
 30
0.0
 11
1904.717743
 21
1257.486221
 31
0.0
  0
LINE
  5
293
100
AcDbEntity
  8
XARCH
100
AcDbLine
 10
1904.717743
 20
1257.486221
 30
0.0
 11
1936.571198
 21
1257.486221
 31
0.0
  0
LINE
  5
294
100
AcDbEntity
  8
XARCH
100
AcDbLine
 10
1936.571198
 20
1257.486221
 30
0.0
 11
1936.571198
 21
1246.535791
 31
0.0
  0
LINE
  5
295
100
AcDbEntity
  8
XARCH
100
AcDbLine
 10
1936.571198
 20
1246.535791
 30
0.0
 11
1930.522878
 21
1246.535791
 31
0.0
  0
LINE
  5
296
100
AcDbEntity
  8
XARCH
100
AcDbLine
 10
1930.522878
 20
1246.535791
 30
0.0
 11
1930.522878
 21
1172.465414
 31
0.0
  0
LINE
  5
297
100
AcDbEntity
  8
XARCH
100
AcDbLine
 10
1930.522878
 20
1172.465414
 30
0.0
 11
1970.504266
 21
1172.465414
 31
0.0
  0
LINE
  5
298
100
AcDbEntity
  8
XARCH
100
AcDbLine
 10
1970.504266
 20
1172.465414
 30
0.0
 11
1970.504266
 21
1245.850685
 31
0.0
  0
LINE
  5
299
100
AcDbEntity
  8
XARCH
100
AcDbLine
 10
1970.504266
 20
1245.850685
 30
0.0
 11
1964.584754
 21
1245.850685
 31
0.0
  0
LINE
  5
29A
100
AcDbEntity
  8
XARCH
100
AcDbLine
 10
1964.584754
 20
1245.850685
 30
0.0
 11
1964.584754
 21
1255.447502
 31
0.0
  0
LINE
  5
29B
100
AcDbEntity
  8
XARCH
100
AcDbLine
 10
1964.584754
 20
1255.447502
 30
0.0
 11
1981.091658
 21
1255.447502
 31
0.0
  0
LINE
  5
29C
100
AcDbEntity
  8
XARCH
100
AcDbLine
 10
1981.091658
 20
1255.447502
 30
0.0
 11
1981.091658
 21
1245.270527
 31
0.0
  0
LINE
  5
29D
100
AcDbEntity
  8
XARCH
100
AcDbLine
 10
1981.091658
 20
1245.270527
 30
0.0
 11
1976.769706
 21
1245.270527
 31
0.0
  0
LINE
  5
29E
100
AcDbEntity
  8
XARCH
100
AcDbLine
 10
1976.769706
 20
1245.270527
 30
0.0
 11
1976.769706
 21
1144.813459
 31
0.0
  0
LINE
  5
29F
100
AcDbEntity
  8
XARCH
100
AcDbLine
 10
1976.769706
 20
1144.813459
 30
0.0
 11
2015.589532
 21
1144.813459
 31
0.0
  0
LINE
  5
2A0
100
AcDbEntity
  8
XARCH
100
AcDbLine
 10
2015.589532
 20
1144.813459
 30
0.0
 11
2015.589532
 21
1245.257444
 31
0.0
  0
LINE
  5
2A1
100
AcDbEntity
  8
XARCH
100
AcDbLine
 10
2015.589532
 20
1245.257444
 30
0.0
 11
2007.857912
 21
1245.257444
 31
0.0
  0
LINE
  5
2A2
100
AcDbEntity
  8
XARCH
100
AcDbLine
 10
2007.857912
 20
1245.257444
 30
0.0
 11
2007.857912
 21
1255.909893
 31
0.0
  0
LINE
  5
2A3
100
AcDbEntity
  8
XARCH
100
AcDbLine
 10
2007.857912
 20
1255.909893
 30
0.0
 11
2016.017419
 21
1255.909893
 31
0.0
  0
LINE
  5
2A4
100
AcDbEntity
  8
XARCH
100
AcDbLine
 10
2016.017419
 20
1255.909893
 30
0.0
 11
2016.017419
 21
1271.547355
 31
0.0
  0
LINE
  5
2A5
100
AcDbEntity
  8
XARCH
100
AcDbLine
 10
2016.017419
 20
1271.547355
 30
0.0
 11
2028.88086
 21
1271.547355
 31
0.0
  0
LINE
  5
2A6
100
AcDbEntity
  8
FIELDCHK
100
AcDbLine
 10
1339.38704
 20
1133.654095
 30
0.0
 11
1339.38704
 21
1140.82885
 31
0.0
  0
LINE
  5
2A7
100
AcDbEntity
  8
FIELDCHK
100
AcDbLine
 10
1339.38704
 20
1140.82885
 30
0.0
 11
1292.759477
 21
1140.82885
 31
0.0
  0
LINE
  5
2A8
100
AcDbEntity
  8
FIELDCHK
100
AcDbLine
 10
1292.759477
 20
1140.82885
 30
0.0
 11
1292.759477
 21
1133.654095
 31
0.0
  0
LINE
  5
2A9
100
AcDbEntity
  8
XARCH
100
AcDbLine
 10
1976.769706
 20
1174.174918
 30
0.0
 11
2015.589532
 21
1174.174918
 31
0.0
  0
LINE
  5
2AA
100
AcDbEntity
  8
XARCH
100
AcDbLine
 10
1976.769706
 20
1170.146145
 30
0.0
 11
2015.589532
 21
1170.146145
 31
0.0
  0
LINE
  5
2AB
100
AcDbEntity
  8
XARCH
100
AcDbLine
 10
1547.863282
 20
1207.92486
 30
0.0
 11
1565.057536
 21
1207.92486
 31
0.0
  0
LINE
  5
2AC
100
AcDbEntity
  8
XARCH
100
AcDbLine
 10
2320.723014
 20
919.161773
 30
0.0
 11
2309.014778
 21
932.058898
 31
0.0
  0
LINE
  5
2AD
100
AcDbEntity
  8
XARCH
100
AcDbLine
 10
2309.014778
 20
932.058898
 30
0.0
 11
2300.375411
 21
922.083578
 31
0.0
  0
LINE
  5
2AE
100
AcDbEntity
  8
XARCH
100
AcDbLine
 10
2300.375411
 20
922.083578
 30
0.0
 11
2285.797097
 21
937.24931
 31
0.0
  0
LINE
  5
2AF
100
AcDbEntity
  8
XARCH
100
AcDbLine
 10
2285.797097
 20
937.24931
 30
0.0
 11
2285.797097
 21
1115.139215
 31
0.0
  0
LINE
  5
2B0
100
AcDbEntity
  8
XARCH
100
AcDbLine
 10
2285.797097
 20
1115.139215
 30
0.0
 11
2351.113309
 21
1115.139215
 31
0.0
  0
LINE
  5
2B1
100
AcDbEntity
  8
XARCH
100
AcDbLine
 10
2351.113309
 20
1115.139215
 30
0.0
 11
2351.113309
 21
1148.890292
 31
0.0
  0
LINE
  5
2B2
100
AcDbEntity
  8
XARCH
100
AcDbLine
 10
2351.113309
 20
1148.890292
 30
0.0
 11
2344.601274
 21
1148.890292
 31
0.0
  0
LINE
  5
2B3
100
AcDbEntity
  8
XARCH
100
AcDbLine
 10
2344.601274
 20
1148.890292
 30
0.0
 11
2344.601274
 21
1121.833089
 31
0.0
  0
LINE
  5
2B4
100
AcDbEntity
  8
XARCH
100
AcDbLine
 10
2351.113309
 20
1121.833089
 30
0.0
 11
2263.897428
 21
1121.833089
 31
0.0
  0
LINE
  5
2B5
100
AcDbEntity
  8
XARCH
100
AcDbLine
 10
2263.897428
 20
1121.833089
 30
0.0
 11
2263.897428
 21
1148.922583
 31
0.0
  0
LINE
  5
2B6
100
AcDbEntity
  8
XARCH
100
AcDbLine
 10
2263.897428
 20
1148.922583
 30
0.0
 11
2256.136162
 21
1148.922583
 31
0.0
  0
LINE
  5
2B7
100
AcDbEntity
  8
XARCH
100
AcDbLine
 10
2256.136162
 20
1148.922583
 30
0.0
 11
2256.136162
 21
1093.946111
 31
0.0
  0
LINE
  5
2B8
100
AcDbEntity
  8
XARCH
100
AcDbLine
 10
2256.136162
 20
1093.946111
 30
0.0
 11
2270.794772
 21
1093.946111
 31
0.0
  0
LINE
  5
2B9
100
AcDbEntity
  8
XARCH
100
AcDbLine
 10
2270.794772
 20
1093.946111
 30
0.0
 11
2270.794772
 21
970.645629
 31
0.0
  0
LINE
  5
2BA
100
AcDbEntity
  8
XARCH
100
AcDbLine
 10
2270.794772
 20
970.645629
 30
0.0
 11
2256.449931
 21
970.645629
 31
0.0
  0
LINE
  5
2BB
100
AcDbEntity
  8
XARCH
100
AcDbLine
 10
2256.449931
 20
970.645629
 30
0.0
 11
2256.449931
 21
954.436215
 31
0.0
  0
LINE
  5
2BC
100
AcDbEntity
  8
XARCH
100
AcDbLine
 10
2256.449931
 20
954.436215
 30
0.0
 11
2243.969758
 21
954.436215
 31
0.0
  0
LINE
  5
2BD
100
AcDbEntity
  8
XARCH
100
AcDbLine
 10
2243.969758
 20
954.436215
 30
0.0
 11
2243.969758
 21
888.907365
 31
0.0
  0
LINE
  5
2BE
100
AcDbEntity
  8
XARCH
100
AcDbLine
 10
2243.969758
 20
888.907365
 30
0.0
 11
2257.851509
 21
875.468984
 31
0.0
  0
LINE
  5
2BF
100
AcDbEntity
  8
XARCH
100
AcDbLine
 10
2257.851509
 20
875.468984
 30
0.0
 11
2253.532582
 21
872.400309
 31
0.0
  0
LINE
  5
2C0
100
AcDbEntity
  8
XARCH
100
AcDbLine
 10
2253.532582
 20
872.400309
 30
0.0
 11
2260.823063
 21
864.460273
 31
0.0
  0
LINE
  5
2C1
100
AcDbEntity
  8
XARCH
100
AcDbLine
 10
2351.113309
 20
1142.264763
 30
0.0
 11
2344.601274
 21
1142.264763
 31
0.0
  0
LINE
  5
2C2
100
AcDbEntity
  8
XARCH
100
AcDbLine
 10
2288.370314
 20
1121.833089
 30
0.0
 11
2288.370314
 21
1115.139215
 31
0.0
  0
LINE
  5
2C3
100
AcDbEntity
  8
XARCH
100
AcDbLine
 10
2340.562708
 20
1121.833089
 30
0.0
 11
2340.562708
 21
1115.139215
 31
0.0
  0
LINE
  5
2C4
100
AcDbEntity
  8
XARCH
100
AcDbLine
 10
2352.797005
 20
1221.998832
 30
0.0
 11
2344.436525
 21
1221.998832
 31
0.0
  0
LINE
  5
2C5
100
AcDbEntity
  8
XARCH
100
AcDbLine
 10
2263.897428
 20
1124.357188
 30
0.0
 11
2256.136162
 21
1124.357188
 31
0.0
  0
LINE
  5
2C6
100
AcDbEntity
  8
XARCH
100
AcDbLine
 10
2262.985919
 20
1240.551412
 30
0.0
 11
2255.492083
 21
1240.551412
 31
0.0
  0
LINE
  5
2C7
100
AcDbEntity
  8
XARCH
100
AcDbLine
 10
2289.094632
 20
1250.235633
 30
0.0
 11
2289.094632
 21
1242.440866
 31
0.0
  0
LINE
  5
2C8
100
AcDbEntity
  8
XARCH
100
AcDbLine
 10
2340.906367
 20
1250.235633
 30
0.0
 11
2340.906367
 21
1242.440866
 31
0.0
  0
LINE
  5
2C9
100
AcDbEntity
  8
XARCH
100
AcDbLine
 10
2344.436525
 20
1238.608794
 30
0.0
 11
2352.797005
 21
1238.608794
 31
0.0
  0
LINE
  5
2CA
100
AcDbEntity
  8
XARCH
100
AcDbLine
 10
2266.494826
 20
1600.943404
 30
0.0
 11
2266.494826
 21
1529.076306
 31
0.0
  0
LINE
  5
2CB
100
AcDbEntity
  8
XARCH
100
AcDbLine
 10
2255.492083
 20
1399.552167
 30
0.0
 11
2271.20343
 21
1399.552167
 31
0.0
  0
LINE
  5
2CC
100
AcDbEntity
  8
XARCH
100
AcDbLine
 10
2271.20343
 20
1399.552167
 30
0.0
 11
2271.20343
 21
1270.582587
 31
0.0
  0
LINE
  5
2CD
100
AcDbEntity
  8
XARCH
100
AcDbLine
 10
2271.20343
 20
1270.582587
 30
0.0
 11
2255.492083
 21
1270.582587
 31
0.0
  0
LINE
  5
2CE
100
AcDbEntity
  8
XARCH
100
AcDbLine
 10
2285.678062
 20
1391.949299
 30
0.0
 11
2281.370347
 21
1391.949299
 31
0.0
  0
LINE
  5
2CF
100
AcDbEntity
  8
XARCH
100
AcDbLine
 10
2281.370347
 20
1391.949299
 30
0.0
 11
2281.370347
 21
1276.719408
 31
0.0
  0
LINE
  5
2D0
100
AcDbEntity
  8
XARCH
100
AcDbLine
 10
2281.370347
 20
1276.719408
 30
0.0
 11
2285.678062
 21
1276.719408
 31
0.0
  0
LINE
  5
2D1
100
AcDbEntity
  8
XARCH
100
AcDbLine
 10
2281.370347
 20
1281.224184
 30
0.0
 11
2275.511146
 21
1281.224184
 31
0.0
  0
LINE
  5
2D2
100
AcDbEntity
  8
XARCH
100
AcDbLine
 10
2281.370347
 20
1388.879452
 30
0.0
 11
2275.511146
 21
1388.879452
 31
0.0
  0
LINE
  5
2D3
100
AcDbEntity
  8
XARCH
100
AcDbLine
 10
2270.794772
 20
1088.86477
 30
0.0
 11
2285.797097
 21
1088.86477
 31
0.0
  0
LINE
  5
2D4
100
AcDbEntity
  8
XARCH
100
AcDbLine
 10
2285.797097
 20
975.432165
 30
0.0
 11
2270.794772
 21
975.432165
 31
0.0
  0
LINE
  5
2D5
100
AcDbEntity
  8
XARCH
100
AcDbLine
 10
1268.794543
 20
845.634735
 30
0.0
 11
1268.794543
 21
892.074143
 31
0.0
  0
LINE
  5
2D6
100
AcDbEntity
  8
XARCH
100
AcDbLine
 10
1268.794543
 20
892.074143
 30
0.0
 11
1273.994369
 21
892.074143
 31
0.0
  0
LINE
  5
2D7
100
AcDbEntity
  8
XARCH
100
AcDbLine
 10
1273.994369
 20
892.074143
 30
0.0
 11
1273.994369
 21
903.874201
 31
0.0
  0
LINE
  5
2D8
100
AcDbEntity
  8
XARCH
100
AcDbLine
 10
1273.994369
 20
903.874201
 30
0.0
 11
1254.041081
 21
903.874201
 31
0.0
  0
LINE
  5
2D9
100
AcDbEntity
  8
XARCH
100
AcDbLine
 10
1254.041081
 20
903.874201
 30
0.0
 11
1254.041081
 21
891.025167
 31
0.0
  0
LINE
  5
2DA
100
AcDbEntity
  8
XARCH
100
AcDbLine
 10
1254.041081
 20
891.025167
 30
0.0
 11
1259.409475
 21
891.025167
 31
0.0
  0
LINE
  5
2DB
100
AcDbEntity
  8
XARCH
100
AcDbLine
 10
1259.409475
 20
891.025167
 30
0.0
 11
1259.409475
 21
838.922181
 31
0.0
  0
LINE
  5
2DC
100
AcDbEntity
  8
XARCH
100
AcDbLine
 10
1259.409475
 20
838.922181
 30
0.0
 11
1294.594006
 21
817.991174
 31
0.0
  0
LINE
  5
2DD
100
AcDbEntity
  8
XARCH
100
AcDbLine
 10
1294.594006
 20
817.991174
 30
0.0
 11
1294.594006
 21
810.603421
 31
0.0
  0
LINE
  5
2DE
100
AcDbEntity
  8
XARCH
100
AcDbLine
 10
1294.594006
 20
810.603421
 30
0.0
 11
1251.22195
 21
810.603421
 31
0.0
  0
LINE
  5
2DF
100
AcDbEntity
  8
XARCH
100
AcDbLine
 10
1251.22195
 20
810.603421
 30
0.0
 11
1251.22195
 21
802.753542
 31
0.0
  0
LINE
  5
2E0
100
AcDbEntity
  8
XARCH
100
AcDbLine
 10
1251.22195
 20
802.753542
 30
0.0
 11
1320.302662
 21
802.753542
 31
0.0
  0
LINE
  5
2E1
100
AcDbEntity
  8
XARCH
100
AcDbLine
 10
1320.302662
 20
802.753542
 30
0.0
 11
1320.302662
 21
765.304892
 31
0.0
  0
LINE
  5
2E2
100
AcDbEntity
  8
XARCH
100
AcDbLine
 10
1320.302662
 20
765.304892
 30
0.0
 11
1335.777442
 21
765.304892
 31
0.0
  0
LINE
  5
2E3
100
AcDbEntity
  8
XARCH
100
AcDbLine
 10
1364.568846
 20
788.284233
 30
0.0
 11
1357.194275
 21
774.084367
 31
0.0
  0
LINE
  5
2E4
100
AcDbEntity
  8
XARCH
100
AcDbLine
 10
1364.640832
 20
770.34802
 30
0.0
 11
1356.335225
 21
754.99951
 31
0.0
  0
LINE
  5
2E5
100
AcDbEntity
  8
XARCH
100
AcDbLine
 10
2422.154788
 20
1376.248433
 30
0.0
 11
2404.349263
 21
1373.602625
 31
0.0
  0
LINE
  5
2E6
100
AcDbEntity
  8
XARCH
100
AcDbLine
 10
2427.961564
 20
1319.443901
 30
0.0
 11
2438.629213
 21
1319.443901
 31
0.0
  0
LINE
  5
2E7
100
AcDbEntity
  8
XARCH
100
AcDbLine
 10
2438.629213
 20
1319.443901
 30
0.0
 11
2438.629213
 21
1296.228714
 31
0.0
  0
LINE
  5
2E8
100
AcDbEntity
  8
XARCH
100
AcDbLine
 10
2438.629213
 20
1045.021048
 30
0.0
 11
2423.725444
 21
1045.021048
 31
0.0
  0
LINE
  5
2E9
100
AcDbEntity
  8
XARCH
100
AcDbLine
 10
2438.629213
 20
1268.676921
 30
0.0
 11
2413.569258
 21
1268.676921
 31
0.0
  0
LINE
  5
2EA
100
AcDbEntity
  8
XARCH
100
AcDbLine
 10
2413.569258
 20
1268.676921
 30
0.0
 11
2413.569258
 21
1244.033674
 31
0.0
  0
LINE
  5
2EB
100
AcDbEntity
  8
XARCH
100
AcDbLine
 10
2413.569258
 20
1097.226503
 30
0.0
 11
2438.629213
 21
1097.226503
 31
0.0
  0
LINE
  5
2EC
100
AcDbEntity
  8
XARCH
100
AcDbLine
 10
2413.569258
 20
1123.041974
 30
0.0
 11
2438.629213
 21
1123.041974
 31
0.0
  0
LINE
  5
2ED
100
AcDbEntity
  8
XARCH
100
AcDbLine
 10
2413.569258
 20
1244.033674
 30
0.0
 11
2438.629213
 21
1244.033674
 31
0.0
  0
LINE
  5
2EE
100
AcDbEntity
  8
XARCH
100
AcDbLine
 10
2410.493376
 20
1296.228714
 30
0.0
 11
2438.629213
 21
1296.228714
 31
0.0
  0
LINE
  5
2EF
100
AcDbEntity
  8
XARCH
100
AcDbLine
 10
2438.629213
 20
1069.386765
 30
0.0
 11
2404.629213
 21
1069.386765
 31
0.0
  0
LINE
  5
2F0
100
AcDbEntity
  8
XARCH
100
AcDbLine
 10
2388.10693
 20
995.682919
 30
0.0
 11
2374.674156
 21
1007.731789
 31
0.0
  0
LINE
  5
2F1
100
AcDbEntity
  8
FIELDCHK
100
AcDbLine
 10
1304.872649
 20
1118.565028
 30
0.0
 11
1304.872649
 21
1121.675896
 31
0.0
  0
LINE
  5
2F2
100
AcDbEntity
  8
FIELDCHK
100
AcDbLine
 10
1294.412734
 20
1118.565028
 30
0.0
 11
1294.412734
 21
1121.675896
 31
0.0
  0
LINE
  5
2F3
100
AcDbEntity
  8
FIELDCHK
100
AcDbLine
 10
1298.743956
 20
1131.269189
 30
0.0
 11
1298.743956
 21
1121.675896
 31
0.0
  0
LINE
  5
2F4
100
AcDbEntity
  8
FIELDCHK
100
AcDbLine
 10
1294.412734
 20
1121.675896
 30
0.0
 11
1304.872649
 21
1121.675896
 31
0.0
  0
LINE
  5
2F5
100
AcDbEntity
  8
FIELDCHK
100
AcDbLine
 10
1294.412734
 20
1131.269189
 30
0.0
 11
1304.872649
 21
1131.269189
 31
0.0
  0
LINE
  5
2F6
100
AcDbEntity
  8
XARCH
100
AcDbLine
 10
1286.872974
 20
810.603421
 30
0.0
 11
1286.872974
 21
802.753542
 31
0.0
  0
LINE
  5
2F7
100
AcDbEntity
  8
XARCH
100
AcDbLine
 10
1256.938528
 20
810.603421
 30
0.0
 11
1256.938528
 21
802.753542
 31
0.0
  0
LINE
  5
2F8
100
AcDbEntity
  8
XARCH
100
AcDbLine
 10
1223.501172
 20
1254.10081
 30
0.0
 11
1223.501172
 21
1244.042999
 31
0.0
  0
LINE
  5
2F9
100
AcDbEntity
  8
XARCH
100
AcDbLine
 10
1223.501172
 20
1244.042999
 30
0.0
 11
1215.246463
 21
1244.042999
 31
0.0
  0
LINE
  5
2FA
100
AcDbEntity
  8
XARCH
100
AcDbLine
 10
1215.246463
 20
1244.042999
 30
0.0
 11
1215.246463
 21
1127.754784
 31
0.0
  0
LINE
  5
2FB
100
AcDbEntity
  8
XARCH
100
AcDbLine
 10
1215.246463
 20
1127.754784
 30
0.0
 11
1223.07562
 21
1127.754784
 31
0.0
  0
LINE
  5
2FC
100
AcDbEntity
  8
XARCH
100
AcDbLine
 10
1223.07562
 20
1127.754784
 30
0.0
 11
1223.07562
 21
1117.870278
 31
0.0
  0
LINE
  5
2FD
100
AcDbEntity
  8
XARCH
100
AcDbLine
 10
1223.07562
 20
1117.870278
 30
0.0
 11
1132.496064
 21
1117.870278
 31
0.0
  0
LINE
  5
2FE
100
AcDbEntity
  8
XARCH
100
AcDbLine
 10
1132.496064
 20
1117.870278
 30
0.0
 11
1132.496064
 21
1101.108099
 31
0.0
  0
LINE
  5
2FF
100
AcDbEntity
  8
XARCH
100
AcDbLine
 10
1132.496064
 20
1101.108099
 30
0.0
 11
1084.131541
 21
1101.108099
 31
0.0
  0
LINE
  5
300
100
AcDbEntity
  8
XARCH
100
AcDbLine
 10
1084.131541
 20
1101.108099
 30
0.0
 11
1072.63217
 21
1144.497568
 31
0.0
  0
LINE
  5
301
100
AcDbEntity
  8
XARCH
100
AcDbLine
 10
1072.63217
 20
1144.497568
 30
0.0
 11
919.191549
 21
1159.592505
 31
0.0
  0
LINE
  5
302
100
AcDbEntity
  8
XARCH
100
AcDbLine
 10
894.351441
 20
1243.866457
 30
0.0
 11
638.608265
 21
1234.04645
 31
0.0
  0
LINE
  5
307
100
AcDbEntity
  8
XARCH
100
AcDbLine
 10
477.732021
 20
883.976854
 30
0.0
 11
624.719259
 21
796.829846
 31
0.0
  0
LINE
  5
308
100
AcDbEntity
  8
XARCH
100
AcDbLine
 10
624.719259
 20
796.829846
 30
0.0
 11
894.276294
 21
785.098605
 31
0.0
  0
LINE
  5
309
100
AcDbEntity
  8
XARCH
100
AcDbLine
 10
919.172531
 20
869.491604
 30
0.0
 11
936.771496
 21
869.07163
 31
0.0
  0
LINE
  5
30A
100
AcDbEntity
  8
XARCH
100
AcDbLine
 10
936.771496
 20
869.07163
 30
0.0
 11
999.140654
 21
874.807777
 31
0.0
  0
LINE
  5
30B
100
AcDbEntity
  8
XARCH
100
AcDbLine
 10
999.140654
 20
874.807777
 30
0.0
 11
999.426548
 21
868.954755
 31
0.0
  0
LINE
  5
30C
100
AcDbEntity
  8
XARCH
100
AcDbLine
 10
999.426548
 20
868.954755
 30
0.0
 11
943.67804
 21
863.600196
 31
0.0
  0
LINE
  5
30D
100
AcDbEntity
  8
XARCH
100
AcDbLine
 10
943.67804
 20
863.600196
 30
0.0
 11
943.66628
 21
828.386695
 31
0.0
  0
LINE
  5
30E
100
AcDbEntity
  8
XARCH
100
AcDbLine
 10
943.66628
 20
828.386695
 30
0.0
 11
956.619539
 21
828.574269
 31
0.0
  0
LINE
  5
30F
100
AcDbEntity
  8
XARCH
100
AcDbLine
 10
956.619539
 20
828.574269
 30
0.0
 11
956.41918
 21
803.24364
 31
0.0
  0
LINE
  5
310
100
AcDbEntity
  8
XARCH
100
AcDbLine
 10
956.41918
 20
803.24364
 30
0.0
 11
1045.556544
 21
803.789568
 31
0.0
  0
LINE
  5
311
100
AcDbEntity
  8
XARCH
100
AcDbLine
 10
1045.556544
 20
803.789568
 30
0.0
 11
1045.08516
 21
828.832572
 31
0.0
  0
LINE
  5
312
100
AcDbEntity
  8
XARCH
100
AcDbLine
 10
1045.08516
 20
828.832572
 30
0.0
 11
1057.270758
 21
828.832572
 31
0.0
  0
LINE
  5
313
100
AcDbEntity
  8
XARCH
100
AcDbLine
 10
1057.270758
 20
828.832572
 30
0.0
 11
1057.270758
 21
874.30877
 31
0.0
  0
LINE
  5
314
100
AcDbEntity
  8
XARCH
100
AcDbLine
 10
1057.270758
 20
874.30877
 30
0.0
 11
1035.888643
 21
872.684612
 31
0.0
  0
LINE
  5
315
100
AcDbEntity
  8
XARCH
100
AcDbLine
 10
1035.888643
 20
872.684612
 30
0.0
 11
1035.506704
 21
878.249817
 31
0.0
  0
LINE
  5
316
100
AcDbEntity
  8
XARCH
100
AcDbLine
 10
1035.506704
 20
878.249817
 30
0.0
 11
1070.337495
 21
881.500471
 31
0.0
  0
LINE
  5
317
100
AcDbEntity
  8
XARCH
100
AcDbLine
 10
1070.337495
 20
881.500471
 30
0.0
 11
1082.923587
 21
931.486011
 31
0.0
  0
LINE
  5
318
100
AcDbEntity
  8
XARCH
100
AcDbLine
 10
1082.923587
 20
931.486011
 30
0.0
 11
1143.467652
 21
931.486011
 31
0.0
  0
LINE
  5
319
100
AcDbEntity
  8
XARCH
100
AcDbLine
 10
1143.467652
 20
931.486011
 30
0.0
 11
1143.467652
 21
903.3524
 31
0.0
  0
LINE
  5
31A
100
AcDbEntity
  8
XARCH
100
AcDbLine
 10
1143.467652
 20
903.3524
 30
0.0
 11
1181.358256
 21
903.3524
 31
0.0
  0
LINE
  5
31B
100
AcDbEntity
  8
XARCH
100
AcDbLine
 10
1181.358256
 20
903.3524
 30
0.0
 11
1181.358256
 21
892.497631
 31
0.0
  0
LINE
  5
31C
100
AcDbEntity
  8
XARCH
100
AcDbLine
 10
1181.358256
 20
892.497631
 30
0.0
 11
1143.551104
 21
892.497631
 31
0.0
  0
LINE
  5
31D
100
AcDbEntity
  8
XARCH
100
AcDbLine
 10
1143.551104
 20
892.497631
 30
0.0
 11
1143.551104
 21
852.595514
 31
0.0
  0
LINE
  5
31E
100
AcDbEntity
  8
XARCH
100
AcDbLine
 10
1143.551104
 20
852.595514
 30
0.0
 11
1134.901926
 21
852.595514
 31
0.0
  0
LINE
  5
31F
100
AcDbEntity
  8
XARCH
100
AcDbLine
 10
1134.901926
 20
852.595514
 30
0.0
 11
1134.901926
 21
894.144027
 31
0.0
  0
LINE
  5
320
100
AcDbEntity
  8
XARCH
100
AcDbLine
 10
1134.901926
 20
894.144027
 30
0.0
 11
1128.870784
 21
894.144027
 31
0.0
  0
LINE
  5
321
100
AcDbEntity
  8
XARCH
100
AcDbLine
 10
1128.870784
 20
894.144027
 30
0.0
 11
1128.870784
 21
900.190838
 31
0.0
  0
LINE
  5
322
100
AcDbEntity
  8
XARCH
100
AcDbLine
 10
1128.870784
 20
900.190838
 30
0.0
 11
1135.013769
 21
900.190838
 31
0.0
  0
LINE
  5
323
100
AcDbEntity
  8
XARCH
100
AcDbLine
 10
1135.013769
 20
900.190838
 30
0.0
 11
1135.013769
 21
923.984542
 31
0.0
  0
LINE
  5
324
100
AcDbEntity
  8
XARCH
100
AcDbLine
 10
1135.013769
 20
923.984542
 30
0.0
 11
1089.253633
 21
923.984542
 31
0.0
  0
LINE
  5
325
100
AcDbEntity
  8
XARCH
100
AcDbLine
 10
1089.253633
 20
923.984542
 30
0.0
 11
1089.253633
 21
869.212706
 31
0.0
  0
LINE
  5
326
100
AcDbEntity
  8
XARCH
100
AcDbLine
 10
1089.253633
 20
869.212706
 30
0.0
 11
1065.727877
 21
869.212706
 31
0.0
  0
LINE
  5
327
100
AcDbEntity
  8
XARCH
100
AcDbLine
 10
1065.727877
 20
869.212706
 30
0.0
 11
1065.727877
 21
781.90614
 31
0.0
  0
LINE
  5
328
100
AcDbEntity
  8
XARCH
100
AcDbLine
 10
1065.727877
 20
781.90614
 30
0.0
 11
1134.878373
 21
781.90614
 31
0.0
  0
LINE
  5
329
100
AcDbEntity
  8
XARCH
100
AcDbLine
 10
1134.878373
 20
781.90614
 30
0.0
 11
1134.878373
 21
818.05632
 31
0.0
  0
LINE
  5
32A
100
AcDbEntity
  8
XARCH
100
AcDbLine
 10
1134.878373
 20
818.05632
 30
0.0
 11
1143.62145
 21
818.05632
 31
0.0
  0
LINE
  5
32B
100
AcDbEntity
  8
XARCH
100
AcDbLine
 10
1143.62145
 20
818.05632
 30
0.0
 11
1143.62145
 21
770.07707
 31
0.0
  0
LINE
  5
32C
100
AcDbEntity
  8
XARCH
100
AcDbLine
 10
1143.62145
 20
810.089973
 30
0.0
 11
1179.216442
 21
810.089973
 31
0.0
  0
LINE
  5
32D
100
AcDbEntity
  8
XARCH
100
AcDbLine
 10
1179.216442
 20
810.089973
 30
0.0
 11
1179.216442
 21
803.36142
 31
0.0
  0
LINE
  5
32E
100
AcDbEntity
  8
XARCH
100
AcDbLine
 10
1179.216442
 20
803.36142
 30
0.0
 11
1172.017947
 21
803.36142
 31
0.0
  0
LINE
  5
32F
100
AcDbEntity
  8
XARCH
100
AcDbLine
 10
1172.017947
 20
803.36142
 30
0.0
 11
1172.017947
 21
764.504142
 31
0.0
  0
LINE
  5
330
100
AcDbEntity
  8
XARCH
100
AcDbLine
 10
1172.017947
 20
764.504142
 30
0.0
 11
1137.366782
 21
764.504142
 31
0.0
  0
LINE
  5
331
100
AcDbEntity
  8
XARCH
100
AcDbLine
 10
1137.366782
 20
764.504142
 30
0.0
 11
1137.366782
 21
766.914066
 31
0.0
  0
LINE
  5
332
100
AcDbEntity
  8
XARCH
100
AcDbLine
 10
1137.366782
 20
766.914066
 30
0.0
 11
1065.790308
 21
766.914066
 31
0.0
  0
LINE
  5
333
100
AcDbEntity
  8
XARCH
100
AcDbLine
 10
1074.041076
 20
766.914066
 30
0.0
 11
1074.041076
 21
638.363049
 31
0.0
  0
LINE
  5
334
100
AcDbEntity
  8
XARCH
100
AcDbLine
 10
1074.041076
 20
638.363049
 30
0.0
 11
782.791475
 21
638.363049
 31
0.0
  0
LINE
  5
335
100
AcDbEntity
  8
XARCH
100
AcDbLine
 10
782.791475
 20
638.363049
 30
0.0
 11
782.791475
 21
765.68908
 31
0.0
  0
LINE
  5
336
100
AcDbEntity
  8
XARCH
100
AcDbLine
 10
791.237506
 20
765.68908
 30
0.0
 11
550.445206
 21
765.68908
 31
0.0
  0
LINE
  5
337
100
AcDbEntity
  8
XARCH
100
AcDbLine
 10
550.445206
 20
765.68908
 30
0.0
 11
550.445206
 21
783.229935
 31
0.0
  0
LINE
  5
338
100
AcDbEntity
  8
XARCH
100
AcDbLine
 10
550.445206
 20
783.229935
 30
0.0
 11
529.916351
 21
783.229935
 31
0.0
  0
LINE
  5
339
100
AcDbEntity
  8
XARCH
100
AcDbLine
 10
529.916351
 20
783.229935
 30
0.0
 11
529.916351
 21
794.270258
 31
0.0
  0
LINE
  5
33A
100
AcDbEntity
  8
XARCH
100
AcDbLine
 10
529.916351
 20
794.270258
 30
0.0
 11
534.90903
 21
794.270258
 31
0.0
  0
LINE
  5
33B
100
AcDbEntity
  8
XARCH
100
AcDbLine
 10
534.90903
 20
794.270258
 30
0.0
 11
534.90903
 21
798.874813
 31
0.0
  0
LINE
  5
33C
100
AcDbEntity
  8
XARCH
100
AcDbLine
 10
534.90903
 20
798.874813
 30
0.0
 11
542.107109
 21
798.874813
 31
0.0
  0
LINE
  5
33D
100
AcDbEntity
  8
XARCH
100
AcDbLine
 10
542.107109
 20
798.874813
 30
0.0
 11
542.107109
 21
794.458921
 31
0.0
  0
LINE
  5
33E
100
AcDbEntity
  8
XARCH
100
AcDbLine
 10
542.107109
 20
794.458921
 30
0.0
 11
565.132415
 21
794.458921
 31
0.0
  0
LINE
  5
33F
100
AcDbEntity
  8
XARCH
100
AcDbLine
 10
565.132415
 20
794.458921
 30
0.0
 11
565.132415
 21
783.896839
 31
0.0
  0
LINE
  5
340
100
AcDbEntity
  8
XARCH
100
AcDbLine
 10
565.132415
 20
783.896839
 30
0.0
 11
597.84924
 21
783.896839
 31
0.0
  0
LINE
  5
341
100
AcDbEntity
  8
XARCH
100
AcDbLine
 10
597.84924
 20
765.68908
 30
0.0
 11
597.84924
 21
804.226809
 31
0.0
  0
LINE
  5
342
100
AcDbEntity
  8
XARCH
100
AcDbLine
 10
597.84924
 20
804.226809
 30
0.0
 11
468.108296
 21
879.939
 31
0.0
  0
LINE
  5
343
100
AcDbEntity
  8
XARCH
100
AcDbLine
 10
542.407775
 20
836.580472
 30
0.0
 11
542.407775
 21
829.192321
 31
0.0
  0
LINE
  5
344
100
AcDbEntity
  8
XARCH
100
AcDbLine
 10
542.407775
 20
829.192321
 30
0.0
 11
534.921464
 21
829.192321
 31
0.0
  0
LINE
  5
345
100
AcDbEntity
  8
XARCH
100
AcDbLine
 10
534.921464
 20
829.192321
 30
0.0
 11
534.921464
 21
841.092474
 31
0.0
  0
LINE
  5
353
100
AcDbEntity
  8
XARCH
100
AcDbLine
 10
619.689296
 20
1258.924879
 30
0.0
 11
652.794886
 21
1258.924879
 31
0.0
  0
LINE
  5
354
100
AcDbEntity
  8
XARCH
100
AcDbLine
 10
652.794886
 20
1258.924879
 30
0.0
 11
652.794886
 21
1264.958552
 31
0.0
  0
LINE
  5
355
100
AcDbEntity
  8
XARCH
100
AcDbLine
 10
652.794886
 20
1264.958552
 30
0.0
 11
665.365948
 21
1264.958552
 31
0.0
  0
LINE
  5
356
100
AcDbEntity
  8
XARCH
100
AcDbLine
 10
665.365948
 20
1264.958552
 30
0.0
 11
665.365948
 21
1257.95045
 31
0.0
  0
LINE
  5
357
100
AcDbEntity
  8
XARCH
100
AcDbLine
 10
665.365948
 20
1257.95045
 30
0.0
 11
941.02711
 21
1257.95045
 31
0.0
  0
LINE
  5
358
100
AcDbEntity
  8
XARCH
100
AcDbLine
 10
941.02711
 20
1257.95045
 30
0.0
 11
941.02711
 21
1253.732105
 31
0.0
  0
LINE
  5
359
100
AcDbEntity
  8
XARCH
100
AcDbLine
 10
941.02711
 20
1253.732105
 30
0.0
 11
948.317997
 21
1253.732105
 31
0.0
  0
LINE
  5
35A
100
AcDbEntity
  8
XARCH
100
AcDbLine
 10
948.317997
 20
1253.732105
 30
0.0
 11
948.317997
 21
1247.013166
 31
0.0
  0
LINE
  5
35B
100
AcDbEntity
  8
XARCH
100
AcDbLine
 10
948.317997
 20
1247.013166
 30
0.0
 11
941.119374
 21
1247.013166
 31
0.0
  0
LINE
  5
35C
100
AcDbEntity
  8
XARCH
100
AcDbLine
 10
941.119374
 20
1247.013166
 30
0.0
 11
941.119374
 21
1192.612439
 31
0.0
  0
LINE
  5
35D
100
AcDbEntity
  8
XARCH
100
AcDbLine
 10
941.119374
 20
1192.612439
 30
0.0
 11
1006.442717
 21
1192.612439
 31
0.0
  0
LINE
  5
35E
100
AcDbEntity
  8
XARCH
100
AcDbLine
 10
1006.442717
 20
1192.612439
 30
0.0
 11
1006.442717
 21
1203.049058
 31
0.0
  0
LINE
  5
35F
100
AcDbEntity
  8
XARCH
100
AcDbLine
 10
1006.442717
 20
1203.049058
 30
0.0
 11
1011.244074
 21
1203.049058
 31
0.0
  0
LINE
  5
360
100
AcDbEntity
  8
XARCH
100
AcDbLine
 10
1011.244074
 20
1203.049058
 30
0.0
 11
1011.244074
 21
1196.8107
 31
0.0
  0
LINE
  5
361
100
AcDbEntity
  8
XARCH
100
AcDbLine
 10
1011.244074
 20
1196.8107
 30
0.0
 11
1015.17586
 21
1196.8107
 31
0.0
  0
LINE
  5
362
100
AcDbEntity
  8
XARCH
100
AcDbLine
 10
1015.17586
 20
1196.8107
 30
0.0
 11
1015.17586
 21
1164.37868
 31
0.0
  0
LINE
  5
363
100
AcDbEntity
  8
XARCH
100
AcDbLine
 10
1015.17586
 20
1164.37868
 30
0.0
 11
1077.628278
 21
1164.37868
 31
0.0
  0
LINE
  5
364
100
AcDbEntity
  8
XARCH
100
AcDbLine
 10
1077.628278
 20
1164.37868
 30
0.0
 11
1077.628278
 21
1196.884507
 31
0.0
  0
LINE
  5
365
100
AcDbEntity
  8
XARCH
100
AcDbLine
 10
1077.628278
 20
1196.884507
 30
0.0
 11
1084.83504
 21
1196.884507
 31
0.0
  0
LINE
  5
366
100
AcDbEntity
  8
XARCH
100
AcDbLine
 10
1084.83504
 20
1196.884507
 30
0.0
 11
1084.83504
 21
1135.858259
 31
0.0
  0
LINE
  5
367
100
AcDbEntity
  8
XARCH
100
AcDbLine
 10
1084.83504
 20
1135.858259
 30
0.0
 11
1115.135116
 21
1135.858259
 31
0.0
  0
LINE
  5
368
100
AcDbEntity
  8
XARCH
100
AcDbLine
 10
1115.135116
 20
1135.858259
 30
0.0
 11
1115.135116
 21
1192.074754
 31
0.0
  0
LINE
  5
369
100
AcDbEntity
  8
XARCH
100
AcDbLine
 10
1115.135116
 20
1192.074754
 30
0.0
 11
1106.806023
 21
1192.074754
 31
0.0
  0
LINE
  5
36A
100
AcDbEntity
  8
XARCH
100
AcDbLine
 10
1106.806023
 20
1192.074754
 30
0.0
 11
1106.806023
 21
1196.682834
 31
0.0
  0
LINE
  5
36B
100
AcDbEntity
  8
XARCH
100
AcDbLine
 10
1106.806023
 20
1196.682834
 30
0.0
 11
1142.213089
 21
1196.682834
 31
0.0
  0
LINE
  5
36C
100
AcDbEntity
  8
XARCH
100
AcDbLine
 10
1142.213089
 20
1196.682834
 30
0.0
 11
1142.213089
 21
1192.065493
 31
0.0
  0
LINE
  5
36D
100
AcDbEntity
  8
XARCH
100
AcDbLine
 10
1142.213089
 20
1192.065493
 30
0.0
 11
1118.895768
 21
1192.065493
 31
0.0
  0
LINE
  5
36E
100
AcDbEntity
  8
XARCH
100
AcDbLine
 10
1118.895768
 20
1192.065493
 30
0.0
 11
1118.895768
 21
1134.315535
 31
0.0
  0
LINE
  5
36F
100
AcDbEntity
  8
XARCH
100
AcDbLine
 10
1118.895768
 20
1134.315535
 30
0.0
 11
1179.037577
 21
1134.315535
 31
0.0
  0
LINE
  5
370
100
AcDbEntity
  8
XARCH
100
AcDbLine
 10
1179.037577
 20
1134.315535
 30
0.0
 11
1179.037577
 21
1192.051105
 31
0.0
  0
LINE
  5
371
100
AcDbEntity
  8
XARCH
100
AcDbLine
 10
1179.037577
 20
1192.051105
 30
0.0
 11
1163.512232
 21
1192.051105
 31
0.0
  0
LINE
  5
372
100
AcDbEntity
  8
XARCH
100
AcDbLine
 10
1163.512232
 20
1192.051105
 30
0.0
 11
1163.512232
 21
1197.143259
 31
0.0
  0
LINE
  5
373
100
AcDbEntity
  8
XARCH
100
AcDbLine
 10
1163.512232
 20
1197.143259
 30
0.0
 11
1177.810388
 21
1197.143259
 31
0.0
  0
LINE
  5
374
100
AcDbEntity
  8
XARCH
100
AcDbLine
 10
1177.810388
 20
1197.143259
 30
0.0
 11
1177.810388
 21
1241.851027
 31
0.0
  0
LINE
  5
375
100
AcDbEntity
  8
XARCH
100
AcDbLine
 10
1177.810388
 20
1241.851027
 30
0.0
 11
1011.065057
 21
1241.851027
 31
0.0
  0
LINE
  5
376
100
AcDbEntity
  8
XARCH
100
AcDbLine
 10
1011.065057
 20
1241.851027
 30
0.0
 11
1011.065057
 21
1235.574688
 31
0.0
  0
LINE
  5
377
100
AcDbEntity
  8
XARCH
100
AcDbLine
 10
1011.065057
 20
1235.574688
 30
0.0
 11
1004.922168
 21
1235.574688
 31
0.0
  0
LINE
  5
378
100
AcDbEntity
  8
XARCH
100
AcDbLine
 10
1004.922168
 20
1235.574688
 30
0.0
 11
1004.922168
 21
1246.994036
 31
0.0
  0
LINE
  5
379
100
AcDbEntity
  8
XARCH
100
AcDbLine
 10
1004.922168
 20
1246.994036
 30
0.0
 11
985.160397
 21
1246.994036
 31
0.0
  0
LINE
  5
37A
100
AcDbEntity
  8
XARCH
100
AcDbLine
 10
985.160397
 20
1246.994036
 30
0.0
 11
985.160397
 21
1254.10081
 31
0.0
  0
LINE
  5
37B
100
AcDbEntity
  8
XARCH
100
AcDbLine
 10
985.160397
 20
1254.10081
 30
0.0
 11
1223.501172
 21
1254.10081
 31
0.0
  0
LINE
  5
37C
100
AcDbEntity
  8
XARCH
100
AcDbLine
 10
963.348308
 20
1155.248522
 30
0.0
 11
963.348308
 21
1110.482087
 31
0.0
  0
LINE
  5
37D
100
AcDbEntity
  8
XARCH
100
AcDbLine
 10
963.348308
 20
1110.482087
 30
0.0
 11
929.574628
 21
1110.482087
 31
0.0
  0
LINE
  5
37E
100
AcDbEntity
  8
XARCH
100
AcDbLine
 10
963.639049
 20
871.542663
 30
0.0
 11
963.639049
 21
915.886283
 31
0.0
  0
LINE
  5
37F
100
AcDbEntity
  8
XARCH
100
AcDbLine
 10
963.639049
 20
915.886283
 30
0.0
 11
929.574628
 21
915.886283
 31
0.0
  0
LINE
  5
380
100
AcDbEntity
  8
XARCH
100
AcDbLine
 10
929.574628
 20
1158.571055
 30
0.0
 11
929.574628
 21
869.243373
 31
0.0
  0
LINE
  5
381
100
AcDbEntity
  8
XARCH
100
AcDbLine
 10
929.574628
 20
1061.35628
 30
0.0
 11
1000.833772
 21
1061.35628
 31
0.0
  0
LINE
  5
382
100
AcDbEntity
  8
XARCH
100
AcDbLine
 10
1000.833772
 20
1061.35628
 30
0.0
 11
1000.833772
 21
1025.928001
 31
0.0
  0
LINE
  5
383
100
AcDbEntity
  8
XARCH
100
AcDbLine
 10
1000.833772
 20
1025.928001
 30
0.0
 11
995.065356
 21
1025.928001
 31
0.0
  0
LINE
  5
384
100
AcDbEntity
  8
XARCH
100
AcDbLine
 10
995.065356
 20
1025.928001
 30
0.0
 11
995.065356
 21
1055.482238
 31
0.0
  0
LINE
  5
385
100
AcDbEntity
  8
XARCH
100
AcDbLine
 10
995.065356
 20
1055.482238
 30
0.0
 11
935.490337
 21
1055.482238
 31
0.0
  0
LINE
  5
386
100
AcDbEntity
  8
XARCH
100
AcDbLine
 10
935.490337
 20
1055.482238
 30
0.0
 11
935.490337
 21
968.379843
 31
0.0
  0
LINE
  5
387
100
AcDbEntity
  8
XARCH
100
AcDbLine
 10
935.490337
 20
968.379843
 30
0.0
 11
993.990556
 21
968.379843
 31
0.0
  0
LINE
  5
388
100
AcDbEntity
  8
XARCH
100
AcDbLine
 10
993.990556
 20
968.379843
 30
0.0
 11
993.990556
 21
994.264122
 31
0.0
  0
LINE
  5
389
100
AcDbEntity
  8
XARCH
100
AcDbLine
 10
993.990556
 20
994.264122
 30
0.0
 11
1000.716384
 21
994.264122
 31
0.0
  0
LINE
  5
38A
100
AcDbEntity
  8
XARCH
100
AcDbLine
 10
1000.716384
 20
994.264122
 30
0.0
 11
1000.716384
 21
963.080601
 31
0.0
  0
LINE
  5
38B
100
AcDbEntity
  8
XARCH
100
AcDbLine
 10
1000.716384
 20
963.080601
 30
0.0
 11
929.574628
 21
963.080601
 31
0.0
  0
LINE
  5
38C
100
AcDbEntity
  8
XARCH
100
AcDbLine
 10
1132.753823
 20
1029.543835
 30
0.0
 11
1132.753823
 21
1004.103157
 31
0.0
  0
LINE
  5
38D
100
AcDbEntity
  8
XARCH
100
AcDbLine
 10
1132.753823
 20
1004.103157
 30
0.0
 11
1090.71973
 21
1004.103157
 31
0.0
  0
LINE
  5
38E
100
AcDbEntity
  8
XARCH
100
AcDbLine
 10
1090.71973
 20
1004.103157
 30
0.0
 11
1090.71973
 21
1029.543835
 31
0.0
  0
LINE
  5
38F
100
AcDbEntity
  8
XARCH
100
AcDbLine
 10
1090.71973
 20
1029.543835
 30
0.0
 11
1132.753823
 21
1029.543835
 31
0.0
  0
LINE
  5
390
100
AcDbEntity
  8
XARCH
100
AcDbLine
 10
1210.066146
 20
1246.454621
 30
0.0
 11
1210.066146
 21
1128.427873
 31
0.0
  0
LINE
  5
391
100
AcDbEntity
  8
XARCH
100
AcDbLine
 10
1210.066146
 20
1128.427873
 30
0.0
 11
1184.312209
 21
1128.427873
 31
0.0
  0
LINE
  5
392
100
AcDbEntity
  8
XARCH
100
AcDbLine
 10
1184.312209
 20
1128.427873
 30
0.0
 11
1184.312209
 21
1246.454621
 31
0.0
  0
LINE
  5
393
100
AcDbEntity
  8
XARCH
100
AcDbLine
 10
1184.312209
 20
1246.454621
 30
0.0
 11
1210.066146
 21
1246.454621
 31
0.0
  0
LINE
  5
394
100
AcDbEntity
  8
XARCH
100
AcDbLine
 10
1015.17586
 20
1188.940302
 30
0.0
 11
1077.628278
 21
1188.940302
 31
0.0
  0
LINE
  5
395
100
AcDbEntity
  8
XARCH
100
AcDbLine
 10
1176.468127
 20
903.3524
 30
0.0
 11
1176.468127
 21
892.497631
 31
0.0
  0
LINE
  5
396
100
AcDbEntity
  8
XARCH
100
AcDbLine
 10
1146.820504
 20
903.3524
 30
0.0
 11
1146.820504
 21
892.497631
 31
0.0
  0
LINE
  5
397
100
AcDbEntity
  8
XARCH
100
AcDbLine
 10
1143.62145
 20
770.07707
 30
0.0
 11
1140.151499
 21
770.07707
 31
0.0
  0
LINE
  5
398
100
AcDbEntity
  8
XARCH
100
AcDbLine
 10
1140.151499
 20
770.07707
 30
0.0
 11
1140.151499
 21
764.504142
 31
0.0
  0
ARC
  5
399
100
AcDbEntity
  8
XARCH
100
AcDbCircle
 10
271.852848
 20
1014.584492
 30
0.0
 40
341.381276
100
AcDbArc
 50
328.103174
 51
30.958331
  0
ARC
  5
39A
100
AcDbEntity
  8
XARCH
100
AcDbCircle
 10
1707.246898
 20
1234.489884
 30
0.0
 40
131.762687
100
AcDbArc
 50
208.97445
 51
331.152927
  0
ARC
  5
39B
100
AcDbEntity
  8
XARCH
100
AcDbCircle
 10
1579.925824
 20
1179.341475
 30
0.0
 40
157.168287
100
AcDbArc
 50
196.433015
 51
214.231821
  0
ARC
  5
39C
100
AcDbEntity
  8
XARCH
100
AcDbCircle
 10
1728.125036
 20
1504.062439
 30
0.0
 40
802.814763
100
AcDbArc
 50
235.099709
 51
309.981867
  0
ARC
  5
39D
100
AcDbEntity
  8
XARCH
100
AcDbCircle
 10
1723.46591
 20
1513.031091
 30
0.0
 40
842.256977
100
AcDbArc
 50
242.593718
 51
315.162959
  0
LINE
  5
39E
100
AcDbEntity
  8
XARCH
100
AcDbLine
 10
1065.790308
 20
768.708196
 30
0.0
 11
1065.790308
 21
646.137658
 31
0.0
  0
LINE
  5
39F
100
AcDbEntity
  8
XARCH
100
AcDbLine
 10
1065.790308
 20
646.137658
 30
0.0
 11
937.313835
 21
646.137658
 31
0.0
  0
LINE
  5
3A0
100
AcDbEntity
  8
XARCH
100
AcDbLine
 10
937.313835
 20
646.137658
 30
0.0
 11
937.313835
 21
768.708196
 31
0.0
  0
LINE
  5
3A1
100
AcDbEntity
  8
XARCH
100
AcDbLine
 10
937.313835
 20
768.708196
 30
0.0
 11
1065.790308
 21
768.708196
 31
0.0
  0
LINE
  5
3A2
100
AcDbEntity
  8
XARCH
100
AcDbLine
 10
915.62926
 20
768.756423
 30
0.0
 11
915.62926
 21
645.995909
 31
0.0
  0
LINE
  5
3A3
100
AcDbEntity
  8
XARCH
100
AcDbLine
 10
915.62926
 20
645.995909
 30
0.0
 11
791.237506
 21
645.995909
 31
0.0
  0
LINE
  5
3A4
100
AcDbEntity
  8
XARCH
100
AcDbLine
 10
791.237506
 20
645.995909
 30
0.0
 11
791.237506
 21
768.756423
 31
0.0
  0
LINE
  5
3A5
100
AcDbEntity
  8
XARCH
100
AcDbLine
 10
791.237506
 20
768.756423
 30
0.0
 11
915.62926
 21
768.756423
 31
0.0
  0
LINE
  5
3A6
100
AcDbEntity
  8
XARCH
100
AcDbLine
 10
1477.764523
 20
741.283863
 30
0.0
 11
1473.615976
 21
725.806213
 31
0.0
  0
LINE
  5
3A7
100
AcDbEntity
  8
XARCH
100
AcDbLine
 10
1489.533558
 20
737.521083
 30
0.0
 11
1485.386279
 21
722.055079
 31
0.0
  0
LINE
  5
3A8
100
AcDbEntity
  8
XARCH
100
AcDbLine
 10
1611.125395
 20
709.819009
 30
0.0
 11
1609.049208
 21
693.952223
 31
0.0
  0
LINE
  5
3A9
100
AcDbEntity
  8
XARCH
100
AcDbLine
 10
1624.328648
 20
707.985902
 30
0.0
 11
1622.319597
 21
692.112426
 31
0.0
  0
LINE
  5
3AA
100
AcDbEntity
  8
XARCH
100
AcDbLine
 10
1750.294389
 20
701.553833
 30
0.0
 11
1750.861701
 21
685.563411
 31
0.0
  0
LINE
  5
3AB
100
AcDbEntity
  8
XARCH
100
AcDbLine
 10
1761.091443
 20
701.924821
 30
0.0
 11
1761.569986
 21
685.931001
 31
0.0
  0
LINE
  5
3AC
100
AcDbEntity
  8
XARCH
100
AcDbLine
 10
1882.875998
 20
716.303794
 30
0.0
 11
1886.327957
 21
700.676199
 31
0.0
  0
LINE
  5
3AD
100
AcDbEntity
  8
XARCH
100
AcDbLine
 10
1895.377185
 20
718.862935
 30
0.0
 11
1898.872797
 21
703.248592
 31
0.0
  0
LINE
  5
3AE
100
AcDbEntity
  8
XARCH
100
AcDbLine
 10
2015.802129
 20
754.560316
 30
0.0
 11
2021.279723
 21
739.524707
 31
0.0
  0
LINE
  5
3AF
100
AcDbEntity
  8
XARCH
100
AcDbLine
 10
2027.624364
 20
759.205611
 30
0.0
 11
2033.13975
 21
744.178475
 31
0.0
  0
LINE
  5
3B0
100
AcDbEntity
  8
XARCH
100
AcDbLine
 10
2138.212873
 20
813.888904
 30
0.0
 11
2146.39916
 21
800.141724
 31
0.0
  0
LINE
  5
3B1
100
AcDbEntity
  8
XARCH
100
AcDbLine
 10
2149.912716
 20
820.976284
 30
0.0
 11
2158.039673
 21
807.190126
 31
0.0
  0
LINE
  5
3B2
100
AcDbEntity
  8
FIELDCHK
100
AcDbLine
 10
2046.007684
 20
899.204705
 30
0.0
 11
2020.746898
 21
899.204705
 31
0.0
  0
LINE
  5
3B3
100
AcDbEntity
  8
FIELDCHK
100
AcDbLine
 10
2046.007684
 20
946.032208
 30
0.0
 11
2020.746898
 21
946.032208
 31
0.0
  0
LINE
  5
3B4
100
AcDbEntity
  8
XARCH
100
AcDbLine
 10
2162.67704
 20
810.072402
 30
0.0
 11
2169.528402
 21
798.590702
 31
0.0
  0
LINE
  5
3B5
100
AcDbEntity
  8
XARCH
100
AcDbLine
 10
2141.376447
 20
797.181341
 30
0.0
 11
2147.761176
 21
785.452681
 31
0.0
  0
LINE
  5
3B6
100
AcDbEntity
  8
XARCH
100
AcDbLine
 10
2039.254633
 20
746.661628
 30
0.0
 11
2043.791551
 21
734.064917
 31
0.0
  0
LINE
  5
3B7
100
AcDbEntity
  8
XARCH
100
AcDbLine
 10
2016.352833
 20
737.653702
 30
0.0
 11
2020.541274
 21
724.904804
 31
0.0
  0
LINE
  5
3B8
100
AcDbEntity
  8
XARCH
100
AcDbLine
 10
1904.229868
 20
704.409575
 30
0.0
 11
1907.384118
 21
691.099884
 31
0.0
  0
LINE
  5
3B9
100
AcDbEntity
  8
XARCH
100
AcDbLine
 10
1880.967909
 20
699.639247
 30
0.0
 11
1883.634701
 21
686.143689
 31
0.0
  0
LINE
  5
3BA
100
AcDbEntity
  8
XARCH
100
AcDbLine
 10
1766.893476
 20
686.165977
 30
0.0
 11
1766.940787
 21
671.896886
 31
0.0
  0
LINE
  5
3BB
100
AcDbEntity
  8
XARCH
100
AcDbLine
 10
1742.602301
 20
685.375671
 30
0.0
 11
1742.949566
 21
670.999498
 31
0.0
  0
LINE
  5
3BC
100
AcDbEntity
  8
XARCH
100
AcDbLine
 10
1628.083224
 20
691.382151
 30
0.0
 11
1625.811869
 21
676.454433
 31
0.0
  0
LINE
  5
3BD
100
AcDbEntity
  8
XARCH
100
AcDbLine
 10
1602.919711
 20
694.876897
 30
0.0
 11
1600.665238
 21
679.774341
 31
0.0
  0
LINE
  5
3BE
100
AcDbEntity
  8
XARCH
100
AcDbLine
 10
1491.038695
 20
720.322889
 30
0.0
 11
1486.700781
 21
704.737153
 31
0.0
  0
LINE
  5
3BF
100
AcDbEntity
  8
XARCH
100
AcDbLine
 10
1466.054279
 20
728.31987
 30
0.0
 11
1461.116018
 21
712.675326
 31
0.0
  0
LINE
  5
3C0
100
AcDbEntity
  8
XARCH
100
AcDbLine
 10
1406.622825
 20
746.658675
 30
0.0
 11
1404.737027
 21
740.941147
 31
0.0
  0
LINE
  5
3C1
100
AcDbEntity
  8
XARCH
100
AcDbLine
 10
1415.526267
 20
742.940804
 30
0.0
 11
1413.351281
 21
737.347763
 31
0.0
  0
LINE
  5
3C2
100
AcDbEntity
  8
XARCH
100
AcDbLine
 10
1541.946075
 20
702.587843
 30
0.0
 11
1540.813994
 21
696.691097
 31
0.0
  0
LINE
  5
3C3
100
AcDbEntity
  8
XARCH
100
AcDbLine
 10
1549.550744
 20
700.859254
 30
0.0
 11
1548.537067
 21
694.938177
 31
0.0
  0
LINE
  5
3C4
100
AcDbEntity
  8
XARCH
100
AcDbLine
 10
1682.563375
 20
682.510086
 30
0.0
 11
1682.172793
 21
676.522529
 31
0.0
  0
LINE
  5
3C5
100
AcDbEntity
  8
XARCH
100
AcDbLine
 10
1689.774432
 20
682.141905
 30
0.0
 11
1689.367572
 21
676.154371
 31
0.0
  0
LINE
  5
3C6
100
AcDbEntity
  8
XARCH
100
AcDbLine
 10
1822.548825
 20
686.68353
 30
0.0
 11
1823.247884
 21
680.724383
 31
0.0
  0
LINE
  5
3C7
100
AcDbEntity
  8
XARCH
100
AcDbLine
 10
1829.149232
 20
687.473041
 30
0.0
 11
1829.702002
 21
681.495706
 31
0.0
  0
LINE
  5
3C8
100
AcDbEntity
  8
XARCH
100
AcDbLine
 10
1965.469311
 20
716.222463
 30
0.0
 11
1967.217797
 21
710.482851
 31
0.0
  0
LINE
  5
3C9
100
AcDbEntity
  8
XARCH
100
AcDbLine
 10
2089.915148
 20
765.054964
 30
0.0
 11
2092.633493
 21
759.705337
 31
0.0
  0
LINE
  5
3CA
100
AcDbEntity
  8
XARCH
100
AcDbLine
 10
2095.991526
 20
768.060823
 30
0.0
 11
2098.819207
 21
762.766451
 31
0.0
  0
LINE
  5
3CB
100
AcDbEntity
  8
XARCH
100
AcDbLine
 10
2208.100414
 20
835.745322
 30
0.0
 11
2211.456022
 21
830.768248
 31
0.0
  0
LINE
  5
3CC
100
AcDbEntity
  8
XARCH
100
AcDbLine
 10
2215.144228
 20
840.860781
 30
0.0
 11
2218.507948
 21
835.886931
 31
0.0
  0
INSERT
  5
3CD
100
AcDbEntity
  8
0
100
AcDbBlockReference
  2
BORDER
 10
0.0
 20
0.0
 30
0.0
 41
3264.0
 42
2112.0
 43
3264.0
  0
LINE
  5
3DD
100
AcDbEntity
  8
XARCH
100
AcDbLine
 10
2262.193366
 20
1600.226755
 30
0.0
 11
2262.193366
 21
1529.076306
 31
0.0
  0
LINE
  5
3DE
100
AcDbEntity
  8
XARCH
100
AcDbLine
 10
2262.193366
 20
1518.523966
 30
0.0
 11
2262.193366
 21
1449.438413
 31
0.0
  0
LINE
  5
3DF
100
AcDbEntity
  8
XARCH
100
AcDbLine
 10
2266.494826
 20
1518.523966
 30
0.0
 11
2266.494826
 21
1449.438413
 31
0.0
  0
LINE
  5
3E0
100
AcDbEntity
  8
XARCH
100
AcDbLine
 10
2275.511146
 20
1391.949299
 30
0.0
 11
2275.511146
 21
1276.719408
 31
0.0
  0
LINE
  5
3E1
100
AcDbEntity
  8
XARCH
100
AcDbLine
 10
2271.20343
 20
1391.949299
 30
0.0
 11
2275.511146
 21
1391.949299
 31
0.0
  0
LINE
  5
3E2
100
AcDbEntity
  8
XARCH
100
AcDbLine
 10
2147.537491
 20
1436.885874
 30
0.0
 11
2038.849322
 21
1436.885874
 31
0.0
  0
ARC
  5
3E3
100
AcDbEntity
  8
XARCH
100
AcDbCircle
 10
2098.004117
 20
1427.865606
 30
0.0
 40
54.187508
100
AcDbArc
 50
106.834961
 51
170.41771
  0
ARC
  5
3E4
100
AcDbEntity
  8
XARCH
100
AcDbCircle
 10
2092.557016
 20
1429.69076
 30
0.0
 40
54.187508
100
AcDbArc
 50
106.834961
 51
172.36963
  0
LINE
  5
3E5
100
AcDbEntity
  8
XARCH
100
AcDbLine
 10
2207.936014
 20
1447.696256
 30
0.0
 11
2250.013124
 21
1447.696256
 31
0.0
  0
LINE
  5
3E6
100
AcDbEntity
  8
XARCH
100
AcDbLine
 10
2207.936014
 20
1458.696256
 30
0.0
 11
2250.013124
 21
1458.696256
 31
0.0
  0
LINE
  5
3E7
100
AcDbEntity
  8
XARCH
100
AcDbLine
 10
2207.936014
 20
1469.696256
 30
0.0
 11
2250.013124
 21
1469.696256
 31
0.0
  0
LINE
  5
3E8
100
AcDbEntity
  8
XARCH
100
AcDbLine
 10
2207.936014
 20
1480.696256
 30
0.0
 11
2250.013124
 21
1480.696256
 31
0.0
  0
LINE
  5
3E9
100
AcDbEntity
  8
XARCH
100
AcDbLine
 10
2207.936014
 20
1491.696256
 30
0.0
 11
2250.013124
 21
1491.696256
 31
0.0
  0
LINE
  5
3EA
100
AcDbEntity
  8
XARCH
100
AcDbLine
 10
2207.936014
 20
1502.696256
 30
0.0
 11
2250.013124
 21
1502.696256
 31
0.0
  0
LINE
  5
3EB
100
AcDbEntity
  8
XARCH
100
AcDbLine
 10
2207.936014
 20
1513.696256
 30
0.0
 11
2250.013124
 21
1513.696256
 31
0.0
  0
LINE
  5
3EC
100
AcDbEntity
  8
XARCH
100
AcDbLine
 10
2207.936014
 20
1524.696256
 30
0.0
 11
2250.013124
 21
1524.696256
 31
0.0
  0
LINE
  5
3ED
100
AcDbEntity
  8
XARCH
100
AcDbLine
 10
2207.936014
 20
1535.696256
 30
0.0
 11
2250.013124
 21
1535.696256
 31
0.0
  0
LINE
  5
3EE
100
AcDbEntity
  8
XARCH
100
AcDbLine
 10
2199.062248
 20
1447.885874
 30
0.0
 11
2159.002114
 21
1447.885874
 31
0.0
  0
LINE
  5
3EF
100
AcDbEntity
  8
XARCH
100
AcDbLine
 10
2199.062248
 20
1458.885874
 30
0.0
 11
2159.002114
 21
1458.885874
 31
0.0
  0
LINE
  5
3F0
100
AcDbEntity
  8
XARCH
100
AcDbLine
 10
2199.062248
 20
1469.885874
 30
0.0
 11
2159.002114
 21
1469.885874
 31
0.0
  0
LINE
  5
3F1
100
AcDbEntity
  8
XARCH
100
AcDbLine
 10
2199.062248
 20
1480.885874
 30
0.0
 11
2159.002114
 21
1480.885874
 31
0.0
  0
LINE
  5
3F2
100
AcDbEntity
  8
XARCH
100
AcDbLine
 10
2199.062248
 20
1491.885874
 30
0.0
 11
2159.002114
 21
1491.885874
 31
0.0
  0
LINE
  5
3F3
100
AcDbEntity
  8
XARCH
100
AcDbLine
 10
2199.062248
 20
1502.885874
 30
0.0
 11
2159.002114
 21
1502.885874
 31
0.0
  0
LINE
  5
3F4
100
AcDbEntity
  8
XARCH
100
AcDbLine
 10
2199.062248
 20
1513.885874
 30
0.0
 11
2159.002114
 21
1513.885874
 31
0.0
  0
LINE
  5
3F5
100
AcDbEntity
  8
XARCH
100
AcDbLine
 10
2199.062248
 20
1524.885874
 30
0.0
 11
2159.002114
 21
1524.885874
 31
0.0
  0
LINE
  5
3F6
100
AcDbEntity
  8
XARCH
100
AcDbLine
 10
2199.062248
 20
1535.885874
 30
0.0
 11
2159.002114
 21
1535.885874
 31
0.0
  0
LINE
  5
3F7
100
AcDbEntity
  8
XARCH
100
AcDbLine
 10
2199.062248
 20
1546.885874
 30
0.0
 11
2159.002114
 21
1546.885874
 31
0.0
  0
LINE
  5
3F8
100
AcDbEntity
  8
XARCH
100
AcDbLine
 10
2147.537491
 20
1447.885874
 30
0.0
 11
2047.650618
 21
1447.885874
 31
0.0
  0
LINE
  5
3F9
100
AcDbEntity
  8
XARCH
100
AcDbLine
 10
2147.537491
 20
1458.885874
 30
0.0
 11
2053.574071
 21
1458.885874
 31
0.0
  0
LINE
  5
3FA
100
AcDbEntity
  8
XARCH
100
AcDbLine
 10
2147.537491
 20
1469.885874
 30
0.0
 11
2063.790332
 21
1469.885874
 31
0.0
  0
LINE
  5
3FB
100
AcDbEntity
  8
XARCH
100
AcDbLine
 10
2147.537491
 20
1480.885874
 30
0.0
 11
2082.310554
 21
1480.885874
 31
0.0
  0
LINE
  5
3FC
100
AcDbEntity
  8
XARCH
100
AcDbLine
 10
2147.537491
 20
1491.885874
 30
0.0
 11
2082.310554
 21
1491.885874
 31
0.0
  0
LINE
  5
3FD
100
AcDbEntity
  8
XARCH
100
AcDbLine
 10
2147.537491
 20
1502.885874
 30
0.0
 11
2082.310554
 21
1502.885874
 31
0.0
  0
LINE
  5
3FE
100
AcDbEntity
  8
XARCH
100
AcDbLine
 10
2147.537491
 20
1513.885874
 30
0.0
 11
2082.310554
 21
1513.885874
 31
0.0
  0
LINE
  5
3FF
100
AcDbEntity
  8
XARCH
100
AcDbLine
 10
2147.537491
 20
1524.885874
 30
0.0
 11
2082.310554
 21
1524.885874
 31
0.0
  0
LINE
  5
400
100
AcDbEntity
  8
XARCH
100
AcDbLine
 10
2147.537491
 20
1535.885874
 30
0.0
 11
2082.310554
 21
1535.885874
 31
0.0
  0
LINE
  5
401
100
AcDbEntity
  8
XARCH
100
AcDbLine
 10
2155.309176
 20
1549.310958
 30
0.0
 11
2155.309176
 21
1435.41086
 31
0.0
  0
LINE
  5
402
100
AcDbEntity
  8
XARCH
100
AcDbLine
 10
2151.332157
 20
1549.310958
 30
0.0
 11
2151.332157
 21
1435.41086
 31
0.0
  0
ARC
  5
403
100
AcDbEntity
  8
XARCH
100
AcDbCircle
 10
2203.499131
 20
1547.28857
 30
0.0
 40
4.44615
100
AcDbArc
 50
3.699834
 51
176.300166
  0
ARC
  5
404
100
AcDbEntity
  8
XARCH
100
AcDbCircle
 10
2153.269803
 20
1549.236501
 30
0.0
 40
5.732795
100
AcDbArc
 50
0.74417
 51
179.25583
  0
ARC
  5
405
100
AcDbEntity
  8
XARCH
100
AcDbCircle
 10
2153.320667
 20
1549.420732
 30
0.0
 40
1.991537
100
AcDbArc
 50
356.840242
 51
183.159758
  0
ARC
  5
406
100
AcDbEntity
  8
XARCH
100
AcDbCircle
 10
2153.320667
 20
1435.301086
 30
0.0
 40
1.991537
100
AcDbArc
 50
176.840242
 51
3.159758
  0
ARC
  5
407
100
AcDbEntity
  8
XARCH
100
AcDbCircle
 10
2153.269803
 20
1435.485316
 30
0.0
 40
5.732795
100
AcDbArc
 50
180.74417
 51
359.25583
  0
LINE
  5
408
100
AcDbEntity
  8
XARCH
100
AcDbLine
 10
1864.524698
 20
1527.983164
 30
0.0
 11
1860.682792
 21
1527.983164
 31
0.0
  0
LINE
  5
409
100
AcDbEntity
  8
XARCH
100
AcDbLine
 10
1864.524698
 20
1513.528386
 30
0.0
 11
1900.31351
 21
1513.528386
 31
0.0
  0
LINE
  5
40A
100
AcDbEntity
  8
XARCH
100
AcDbLine
 10
1864.524698
 20
1502.528386
 30
0.0
 11
1900.31351
 21
1502.528386
 31
0.0
  0
LINE
  5
40B
100
AcDbEntity
  8
XARCH
100
AcDbLine
 10
1864.524698
 20
1491.528386
 30
0.0
 11
1900.31351
 21
1491.528386
 31
0.0
  0
LINE
  5
40C
100
AcDbEntity
  8
XARCH
100
AcDbLine
 10
1864.524698
 20
1480.528386
 30
0.0
 11
1900.31351
 21
1480.528386
 31
0.0
  0
LINE
  5
40D
100
AcDbEntity
  8
XARCH
100
AcDbLine
 10
1864.524698
 20
1469.528386
 30
0.0
 11
1900.31351
 21
1469.528386
 31
0.0
  0
LINE
  5
40E
100
AcDbEntity
  8
XARCH
100
AcDbLine
 10
2008.274246
 20
1436.068641
 30
0.0
 11
1971.275623
 21
1436.068641
 31
0.0
  0
LINE
  5
40F
100
AcDbEntity
  8
XARCH
100
AcDbLine
 10
2008.274246
 20
1447.068641
 30
0.0
 11
1971.275623
 21
1447.068641
 31
0.0
  0
LINE
  5
410
100
AcDbEntity
  8
XARCH
100
AcDbLine
 10
2008.274246
 20
1458.068641
 30
0.0
 11
1971.275623
 21
1458.068641
 31
0.0
  0
LINE
  5
411
100
AcDbEntity
  8
XARCH
100
AcDbLine
 10
2008.274246
 20
1469.068641
 30
0.0
 11
1971.275623
 21
1469.068641
 31
0.0
  0
LINE
  5
412
100
AcDbEntity
  8
XARCH
100
AcDbLine
 10
2008.274246
 20
1480.068641
 30
0.0
 11
1971.275623
 21
1480.068641
 31
0.0
  0
LINE
  5
413
100
AcDbEntity
  8
XARCH
100
AcDbLine
 10
2008.274246
 20
1491.068641
 30
0.0
 11
1971.275623
 21
1491.068641
 31
0.0
  0
LINE
  5
414
100
AcDbEntity
  8
XARCH
100
AcDbLine
 10
2008.274246
 20
1502.068641
 30
0.0
 11
1971.275623
 21
1502.068641
 31
0.0
  0
LINE
  5
415
100
AcDbEntity
  8
XARCH
100
AcDbLine
 10
2008.274246
 20
1513.068641
 30
0.0
 11
1971.275623
 21
1513.068641
 31
0.0
  0
LINE
  5
416
100
AcDbEntity
  8
XARCH
100
AcDbLine
 10
2008.274246
 20
1524.068641
 30
0.0
 11
1971.275623
 21
1524.068641
 31
0.0
  0
LINE
  5
417
100
AcDbEntity
  8
XARCH
100
AcDbLine
 10
2008.274246
 20
1535.068641
 30
0.0
 11
1971.275623
 21
1535.068641
 31
0.0
  0
LINE
  5
418
100
AcDbEntity
  8
XARCH
100
AcDbLine
 10
2008.274246
 20
1546.068641
 30
0.0
 11
1971.275623
 21
1546.068641
 31
0.0
  0
LINE
  5
419
100
AcDbEntity
  8
XARCH
100
AcDbLine
 10
2008.274246
 20
1557.068641
 30
0.0
 11
1971.275623
 21
1557.068641
 31
0.0
  0
LINE
  5
41A
100
AcDbEntity
  8
XARCH
100
AcDbLine
 10
2008.274246
 20
1568.068641
 30
0.0
 11
1971.275623
 21
1568.068641
 31
0.0
  0
LINE
  5
41B
100
AcDbEntity
  8
XARCH
100
AcDbLine
 10
1909.980186
 20
1469.528386
 30
0.0
 11
1945.236522
 21
1469.528386
 31
0.0
  0
LINE
  5
41C
100
AcDbEntity
  8
XARCH
100
AcDbLine
 10
1909.980186
 20
1480.528386
 30
0.0
 11
1945.236522
 21
1480.528386
 31
0.0
  0
LINE
  5
41D
100
AcDbEntity
  8
XARCH
100
AcDbLine
 10
1909.980186
 20
1491.528386
 30
0.0
 11
1945.236522
 21
1491.528386
 31
0.0
  0
LINE
  5
41E
100
AcDbEntity
  8
XARCH
100
AcDbLine
 10
1909.980186
 20
1502.528386
 30
0.0
 11
1945.236522
 21
1502.528386
 31
0.0
  0
LINE
  5
41F
100
AcDbEntity
  8
XARCH
100
AcDbLine
 10
1909.980186
 20
1513.528386
 30
0.0
 11
1945.236522
 21
1513.528386
 31
0.0
  0
LINE
  5
420
100
AcDbEntity
  8
XARCH
100
AcDbLine
 10
1909.980186
 20
1524.528386
 30
0.0
 11
1945.236522
 21
1524.528386
 31
0.0
  0
LINE
  5
421
100
AcDbEntity
  8
XARCH
100
AcDbLine
 10
1945.236522
 20
1556.112226
 30
0.0
 11
1945.236522
 21
1465.584567
 31
0.0
  0
LINE
  5
422
100
AcDbEntity
  8
XARCH
100
AcDbLine
 10
1951.236522
 20
1567.612628
 30
0.0
 11
1951.236522
 21
1471.584567
 31
0.0
  0
LINE
  5
423
100
AcDbEntity
  8
XARCH
100
AcDbLine
 10
1965.275623
 20
1567.612628
 30
0.0
 11
1951.236522
 21
1567.612628
 31
0.0
  0
LINE
  5
424
100
AcDbEntity
  8
XARCH
100
AcDbLine
 10
1965.275623
 20
1471.584567
 30
0.0
 11
1965.275623
 21
1567.612628
 31
0.0
  0
LINE
  5
425
100
AcDbEntity
  8
XARCH
100
AcDbLine
 10
1951.236522
 20
1471.584567
 30
0.0
 11
1965.275623
 21
1471.584567
 31
0.0
  0
LINE
  5
426
100
AcDbEntity
  8
XARCH
100
AcDbLine
 10
2275.511146
 20
1276.719408
 30
0.0
 11
2271.20343
 21
1276.719408
 31
0.0
  0
LINE
  5
427
100
AcDbEntity
  8
XARCH
100
AcDbLine
 10
2262.985919
 20
1221.998832
 30
0.0
 11
2255.492083
 21
1221.998832
 31
0.0
  0
LINE
  5
428
100
AcDbEntity
  8
XARCH
100
AcDbLine
 10
2312.24546
 20
1250.235633
 30
0.0
 11
2312.24546
 21
1242.440866
 31
0.0
  0
LINE
  5
429
100
AcDbEntity
  8
XARCH
100
AcDbLine
 10
2315.428701
 20
1250.235633
 30
0.0
 11
2315.428701
 21
1242.440866
 31
0.0
  0
LINE
  5
42A
100
AcDbEntity
  8
XARCH
100
AcDbLine
 10
2340.906367
 20
1246.490786
 30
0.0
 11
2315.428701
 21
1246.490786
 31
0.0
  0
LINE
  5
42B
100
AcDbEntity
  8
XARCH
100
AcDbLine
 10
2259.513293
 20
1240.551412
 30
0.0
 11
2259.513293
 21
1221.998832
 31
0.0
  0
LINE
  5
42C
100
AcDbEntity
  8
XARCH
100
AcDbLine
 10
2348.456225
 20
1238.608794
 30
0.0
 11
2348.456225
 21
1221.998832
 31
0.0
  0
LINE
  5
42D
100
AcDbEntity
  8
XARCH
100
AcDbLine
 10
2312.24546
 20
1246.490786
 30
0.0
 11
2289.094632
 21
1246.490786
 31
0.0
  0
LINE
  5
42E
100
AcDbEntity
  8
XARCH
100
AcDbLine
 10
2413.569258
 20
1123.041974
 30
0.0
 11
2413.569258
 21
1097.226503
 31
0.0
  0
CIRCLE
  5
42F
100
AcDbEntity
  8
XARCH
100
AcDbCircle
 10
2426.099236
 20
1256.355297
 30
0.0
 40
12.224836
  0
CIRCLE
  5
430
100
AcDbEntity
  8
XARCH
100
AcDbCircle
 10
2426.099236
 20
1110.134239
 30
0.0
 40
12.224836
  0
LINE
  5
431
100
AcDbEntity
  8
XARCH
100
AcDbLine
 10
2263.897428
 20
1142.264763
 30
0.0
 11
2256.136162
 21
1142.264763
 31
0.0
  0
LINE
  5
432
100
AcDbEntity
  8
XARCH
100
AcDbLine
 10
2315.334752
 20
1121.833089
 30
0.0
 11
2315.334752
 21
1115.139215
 31
0.0
  0
LINE
  5
433
100
AcDbEntity
  8
XARCH
100
AcDbLine
 10
2318.698484
 20
1121.833089
 30
0.0
 11
2318.698484
 21
1115.139215
 31
0.0
  0
LINE
  5
434
100
AcDbEntity
  8
XARCH
100
AcDbLine
 10
2340.562708
 20
1118.470582
 30
0.0
 11
2318.698484
 21
1118.470582
 31
0.0
  0
LINE
  5
435
100
AcDbEntity
  8
XARCH
100
AcDbLine
 10
2259.920349
 20
1142.264763
 30
0.0
 11
2259.920349
 21
1124.357188
 31
0.0
  0
LINE
  5
436
100
AcDbEntity
  8
XARCH
100
AcDbLine
 10
2347.749585
 20
1121.833089
 30
0.0
 11
2347.749585
 21
1142.264763
 31
0.0
  0
LINE
  5
437
100
AcDbEntity
  8
XARCH
100
AcDbLine
 10
2315.334752
 20
1118.470582
 30
0.0
 11
2288.370314
 21
1118.470582
 31
0.0
  0
LINE
  5
438
100
AcDbEntity
  8
XARCH
100
AcDbLine
 10
2279.910575
 20
975.432165
 30
0.0
 11
2279.910575
 21
1088.86477
 31
0.0
  0
LINE
  5
439
100
AcDbEntity
  8
XARCH
100
AcDbLine
 10
2276.12638
 20
975.432165
 30
0.0
 11
2276.12638
 21
1088.86477
 31
0.0
  0
LINE
  5
43A
100
AcDbEntity
  8
XARCH
100
AcDbLine
 10
2276.12638
 20
1083.400706
 30
0.0
 11
2279.910575
 21
1083.400706
 31
0.0
  0
LINE
  5
43B
100
AcDbEntity
  8
XARCH
100
AcDbLine
 10
2276.12638
 20
981.685008
 30
0.0
 11
2279.910575
 21
981.685008
 31
0.0
  0
LINE
  5
43C
100
AcDbEntity
  8
XARCH
100
AcDbLine
 10
2015.589532
 20
1170.146145
 30
0.0
 11
1976.769706
 21
1144.813459
 31
0.0
  0
LINE
  5
43D
100
AcDbEntity
  8
XARCH
100
AcDbLine
 10
1976.769706
 20
1170.146145
 30
0.0
 11
2015.589532
 21
1144.813459
 31
0.0
  0
LINE
  5
43E
100
AcDbEntity
  8
FIELDCHK
100
AcDbLine
 10
1393.746898
 20
946.032208
 30
0.0
 11
1366.652867
 21
946.032208
 31
0.0
  0
LINE
  5
43F
100
AcDbEntity
  8
FIELDCHK
100
AcDbLine
 10
1393.746898
 20
899.204705
 30
0.0
 11
1366.652867
 21
899.204705
 31
0.0
  0
ARC
  5
440
100
AcDbEntity
  8
XARCH
100
AcDbCircle
 10
1707.246898
 20
1234.489884
 30
0.0
 40
181.762687
100
AcDbArc
 50
209.085493
 51
330.734545
  0
ARC
  5
441
100
AcDbEntity
  8
XARCH
100
AcDbCircle
 10
1707.246898
 20
1234.489884
 30
0.0
 40
231.762687
100
AcDbArc
 50
209.148624
 51
330.496712
  0
ARC
  5
442
100
AcDbEntity
  8
XARCH
100
AcDbCircle
 10
1707.246898
 20
1234.489884
 30
0.0
 40
281.762687
100
AcDbArc
 50
209.189348
 51
330.343296
  0
ARC
  5
443
100
AcDbEntity
  8
FIELDCHK
100
AcDbCircle
 10
1707.246898
 20
1221.346219
 30
0.0
 40
331.762687
100
AcDbArc
 50
225.583632
 51
314.416368
  0
ARC
  5
444
100
AcDbEntity
  8
XARCH
100
AcDbCircle
 10
1579.925824
 20
1179.341475
 30
0.0
 40
116.168287
100
AcDbArc
 50
191.671288
 51
216.039328
  0
ARC
  5
445
100
AcDbEntity
  8
XARCH
100
AcDbCircle
 10
1579.925824
 20
1179.341475
 30
0.0
 40
104.168287
100
AcDbArc
 50
189.671116
 51
216.810793
  0
ARC
  5
446
100
AcDbEntity
  8
XARCH
100
AcDbCircle
 10
1624.020876
 20
1204.165576
 30
0.0
 40
116.168287
100
AcDbArc
 50
192.096118
 51
216.039328
  0
ARC
  5
447
100
AcDbEntity
  8
XARCH
100
AcDbCircle
 10
1624.020876
 20
1204.165576
 30
0.0
 40
104.168287
100
AcDbArc
 50
190.150073
 51
216.810793
  0
ARC
  5
448
100
AcDbEntity
  8
XARCH
100
AcDbCircle
 10
1667.224582
 20
1228.245458
 30
0.0
 40
116.168287
100
AcDbArc
 50
194.022328
 51
216.039328
  0
ARC
  5
449
100
AcDbEntity
  8
XARCH
100
AcDbCircle
 10
1667.224582
 20
1228.245458
 30
0.0
 40
104.168287
100
AcDbArc
 50
191.249088
 51
216.693633
  0
LINE
  5
44A
100
AcDbEntity
  8
XARCH
100
AcDbLine
 10
1547.863282
 20
1200.097883
 30
0.0
 11
1554.517949
 21
1200.097883
 31
0.0
  0
LINE
  5
44B
100
AcDbEntity
  8
XARCH
100
AcDbLine
 10
1461.264477
 20
1097.074964
 30
0.0
 11
1441.78992
 21
1086.111412
 31
0.0
  0
LINE
  5
44C
100
AcDbEntity
  8
XARCH
100
AcDbLine
 10
1504.834827
 20
1121.603674
 30
0.0
 11
1485.990596
 21
1110.994976
 31
0.0
  0
LINE
  5
44D
100
AcDbEntity
  8
XARCH
100
AcDbLine
 10
1548.405334
 20
1146.132473
 30
0.0
 11
1530.085648
 21
1135.819077
 31
0.0
  0
ARC
  5
44E
100
AcDbEntity
  8
XARCH
100
AcDbCircle
 10
1834.567973
 20
1179.341475
 30
0.0
 40
157.168287
100
AcDbArc
 50
324.782176
 51
342.312193
  0
ARC
  5
44F
100
AcDbEntity
  8
XARCH
100
AcDbCircle
 10
1834.567973
 20
1179.341475
 30
0.0
 40
116.168287
100
AcDbArc
 50
323.063874
 51
346.853463
  0
ARC
  5
450
100
AcDbEntity
  8
XARCH
100
AcDbCircle
 10
1834.567973
 20
1179.341475
 30
0.0
 40
104.168287
100
AcDbArc
 50
322.303275
 51
348.892759
  0
ARC
  5
451
100
AcDbEntity
  8
XARCH
100
AcDbCircle
 10
1790.472921
 20
1204.165576
 30
0.0
 40
116.168287
100
AcDbArc
 50
323.497607
 51
347.239383
  0
ARC
  5
452
100
AcDbEntity
  8
XARCH
100
AcDbCircle
 10
1790.472921
 20
1204.165576
 30
0.0
 40
104.168287
100
AcDbArc
 50
322.787706
 51
349.328297
  0
ARC
  5
453
100
AcDbEntity
  8
XARCH
100
AcDbCircle
 10
1747.269214
 20
1228.245458
 30
0.0
 40
104.168287
100
AcDbArc
 50
323.377614
 51
348.733619
  0
ARC
  5
454
100
AcDbEntity
  8
XARCH
100
AcDbCircle
 10
1747.269214
 20
1228.245458
 30
0.0
 40
116.168287
100
AcDbArc
 50
324.025896
 51
345.35537
  0
LINE
  5
455
100
AcDbEntity
  8
XARCH
100
AcDbLine
 10
1952.10027
 20
1095.073106
 30
0.0
 11
1976.624512
 21
1080.703353
 31
0.0
  0
LINE
  5
456
100
AcDbEntity
  8
XARCH
100
AcDbLine
 10
1908.956324
 20
1120.352901
 30
0.0
 11
1927.421973
 21
1109.533125
 31
0.0
  0
LINE
  5
457
100
AcDbEntity
  8
XARCH
100
AcDbLine
 10
1865.810154
 20
1145.634
 30
0.0
 11
1883.852709
 21
1135.062132
 31
0.0
  0
LINE
  5
45A
100
AcDbEntity
  8
FIELDCHK
100
AcDbLine
 10
1304.872649
 20
1131.269189
 30
0.0
 11
1304.872649
 21
1133.654095
 31
0.0
  0
LINE
  5
45B
100
AcDbEntity
  8
FIELDCHK
100
AcDbLine
 10
1294.412734
 20
1131.269189
 30
0.0
 11
1294.412734
 21
1133.654095
 31
0.0
  0
LINE
  5
45C
100
AcDbEntity
  8
XARCH
100
AcDbLine
 10
1210.066146
 20
1246.454621
 30
0.0
 11
1184.312209
 21
1128.427873
 31
0.0
  0
LINE
  5
45D
100
AcDbEntity
  8
XARCH
100
AcDbLine
 10
1184.312209
 20
1246.454621
 30
0.0
 11
1210.066146
 21
1128.427873
 31
0.0
  0
LINE
  5
45E
100
AcDbEntity
  8
XARCH
100
AcDbLine
 10
1256.938528
 20
806.717153
 30
0.0
 11
1286.872974
 21
806.717153
 31
0.0
  0
LINE
  5
45F
100
AcDbEntity
  8
XARCH
100
AcDbLine
 10
1176.468127
 20
897.860161
 30
0.0
 11
1146.820504
 21
897.860161
 31
0.0
  0
ARC
  5
460
100
AcDbEntity
  8
XARCH
100
AcDbCircle
 10
271.852848
 20
1014.584492
 30
0.0
 40
377.131276
100
AcDbArc
 50
328.220131
 51
30.928873
  0
ARC
  5
461
100
AcDbEntity
  8
XARCH
100
AcDbCircle
 10
271.852848
 20
1014.584492
 30
0.0
 40
412.881276
100
AcDbArc
 50
328.31683
 51
30.904516
  0
ARC
  5
462
100
AcDbEntity
  8
XARCH
100
AcDbCircle
 10
271.852848
 20
1014.584492
 30
0.0
 40
448.631276
100
AcDbArc
 50
330.718254
 51
29.421885
  0
ARC
  5
463
100
AcDbEntity
  8
XARCH
100
AcDbCircle
 10
271.852848
 20
1014.584492
 30
0.0
 40
484.381276
100
AcDbArc
 50
332.834156
 51
27.266806
  0
ARC
  5
464
100
AcDbEntity
  8
XARCH
100
AcDbCircle
 10
271.852848
 20
1014.584492
 30
0.0
 40
520.131276
100
AcDbArc
 50
334.630657
 51
25.438103
  0
ARC
  5
465
100
AcDbEntity
  8
XARCH
100
AcDbCircle
 10
271.852848
 20
1014.584492
 30
0.0
 40
555.881276
100
AcDbArc
 50
336.176858
 51
23.864881
  0
ARC
  5
466
100
AcDbEntity
  8
XARCH
100
AcDbCircle
 10
271.852848
 20
1014.584492
 30
0.0
 40
591.631276
100
AcDbArc
 50
337.52282
 51
22.49587
  0
ARC
  5
467
100
AcDbEntity
  8
XARCH
100
AcDbCircle
 10
271.852848
 20
1014.584492
 30
0.0
 40
627.381276
100
AcDbArc
 50
338.705828
 51
21.292937
  0
ARC
  5
468
100
AcDbEntity
  8
XARCH
100
AcDbCircle
 10
271.852848
 20
1014.584492
 30
0.0
 40
663.381276
100
AcDbArc
 50
339.761202
 51
347.366302
  0
ARC
  5
469
100
AcDbEntity
  8
XARCH
100
AcDbCircle
 10
271.852848
 20
1014.584492
 30
0.0
 40
663.381276
100
AcDbArc
 50
12.626186
 51
20.220027
  0
LINE
  5
46A
100
AcDbEntity
  8
XARCH
100
AcDbLine
 10
952.639049
 20
871.542663
 30
0.0
 11
952.639049
 21
915.886283
 31
0.0
  0
LINE
  5
46B
100
AcDbEntity
  8
XARCH
100
AcDbLine
 10
941.639049
 20
871.542663
 30
0.0
 11
941.639049
 21
915.886283
 31
0.0
  0
LINE
  5
46C
100
AcDbEntity
  8
XARCH
100
AcDbLine
 10
952.348308
 20
1155.248522
 30
0.0
 11
952.348308
 21
1110.482087
 31
0.0
  0
LINE
  5
46D
100
AcDbEntity
  8
XARCH
100
AcDbLine
 10
941.348308
 20
1155.248522
 30
0.0
 11
941.348308
 21
1110.482087
 31
0.0
  0
LINE
  5
46E
100
AcDbEntity
  8
XARCH
100
AcDbLine
 10
915.62926
 20
652.633023
 30
0.0
 11
791.237506
 21
652.633023
 31
0.0
  0
LINE
  5
46F
100
AcDbEntity
  8
XARCH
100
AcDbLine
 10
915.62926
 20
657.633023
 30
0.0
 11
791.237506
 21
657.633023
 31
0.0
  0
LINE
  5
470
100
AcDbEntity
  8
XARCH
100
AcDbLine
 10
915.62926
 20
662.633023
 30
0.0
 11
791.237506
 21
662.633023
 31
0.0
  0
LINE
  5
471
100
AcDbEntity
  8
XARCH
100
AcDbLine
 10
915.62926
 20
667.633023
 30
0.0
 11
791.237506
 21
667.633023
 31
0.0
  0
LINE
  5
472
100
AcDbEntity
  8
XARCH
100
AcDbLine
 10
915.62926
 20
672.633023
 30
0.0
 11
791.237506
 21
672.633023
 31
0.0
  0
LINE
  5
473
100
AcDbEntity
  8
XARCH
100
AcDbLine
 10
915.62926
 20
677.633023
 30
0.0
 11
791.237506
 21
677.633023
 31
0.0
  0
LINE
  5
474
100
AcDbEntity
  8
XARCH
100
AcDbLine
 10
915.62926
 20
682.633023
 30
0.0
 11
791.237506
 21
682.633023
 31
0.0
  0
LINE
  5
475
100
AcDbEntity
  8
XARCH
100
AcDbLine
 10
915.62926
 20
687.633023
 30
0.0
 11
791.237506
 21
687.633023
 31
0.0
  0
LINE
  5
476
100
AcDbEntity
  8
XARCH
100
AcDbLine
 10
915.62926
 20
692.633023
 30
0.0
 11
791.237506
 21
692.633023
 31
0.0
  0
LINE
  5
477
100
AcDbEntity
  8
XARCH
100
AcDbLine
 10
915.62926
 20
697.633023
 30
0.0
 11
791.237506
 21
697.633023
 31
0.0
  0
LINE
  5
478
100
AcDbEntity
  8
XARCH
100
AcDbLine
 10
915.62926
 20
702.633023
 30
0.0
 11
791.237506
 21
702.633023
 31
0.0
  0
LINE
  5
479
100
AcDbEntity
  8
XARCH
100
AcDbLine
 10
915.62926
 20
707.633023
 30
0.0
 11
791.237506
 21
707.633023
 31
0.0
  0
LINE
  5
47A
100
AcDbEntity
  8
XARCH
100
AcDbLine
 10
915.62926
 20
712.633023
 30
0.0
 11
791.237506
 21
712.633023
 31
0.0
  0
LINE
  5
47B
100
AcDbEntity
  8
XARCH
100
AcDbLine
 10
915.62926
 20
717.633023
 30
0.0
 11
791.237506
 21
717.633023
 31
0.0
  0
LINE
  5
47C
100
AcDbEntity
  8
XARCH
100
AcDbLine
 10
915.62926
 20
722.633023
 30
0.0
 11
791.237506
 21
722.633023
 31
0.0
  0
LINE
  5
47D
100
AcDbEntity
  8
XARCH
100
AcDbLine
 10
915.62926
 20
727.633023
 30
0.0
 11
791.237506
 21
727.633023
 31
0.0
  0
LINE
  5
47E
100
AcDbEntity
  8
XARCH
100
AcDbLine
 10
915.62926
 20
732.633023
 30
0.0
 11
791.237506
 21
732.633023
 31
0.0
  0
LINE
  5
47F
100
AcDbEntity
  8
XARCH
100
AcDbLine
 10
915.62926
 20
737.633023
 30
0.0
 11
791.237506
 21
737.633023
 31
0.0
  0
LINE
  5
480
100
AcDbEntity
  8
XARCH
100
AcDbLine
 10
915.62926
 20
742.633023
 30
0.0
 11
791.237506
 21
742.633023
 31
0.0
  0
LINE
  5
481
100
AcDbEntity
  8
XARCH
100
AcDbLine
 10
915.62926
 20
747.633023
 30
0.0
 11
791.237506
 21
747.633023
 31
0.0
  0
LINE
  5
482
100
AcDbEntity
  8
XARCH
100
AcDbLine
 10
915.62926
 20
752.633023
 30
0.0
 11
791.237506
 21
752.633023
 31
0.0
  0
LINE
  5
483
100
AcDbEntity
  8
XARCH
100
AcDbLine
 10
915.62926
 20
757.633023
 30
0.0
 11
791.237506
 21
757.633023
 31
0.0
  0
LINE
  5
484
100
AcDbEntity
  8
XARCH
100
AcDbLine
 10
915.62926
 20
762.633023
 30
0.0
 11
791.237506
 21
762.633023
 31
0.0
  0
LINE
  5
485
100
AcDbEntity
  8
XARCH
100
AcDbLine
 10
1065.790308
 20
652.774772
 30
0.0
 11
937.313835
 21
652.774772
 31
0.0
  0
LINE
  5
486
100
AcDbEntity
  8
XARCH
100
AcDbLine
 10
1065.790308
 20
657.774772
 30
0.0
 11
937.313835
 21
657.774772
 31
0.0
  0
LINE
  5
487
100
AcDbEntity
  8
XARCH
100
AcDbLine
 10
1065.790308
 20
662.774772
 30
0.0
 11
937.313835
 21
662.774772
 31
0.0
  0
LINE
  5
488
100
AcDbEntity
  8
XARCH
100
AcDbLine
 10
1065.790308
 20
667.774772
 30
0.0
 11
937.313835
 21
667.774772
 31
0.0
  0
LINE
  5
489
100
AcDbEntity
  8
XARCH
100
AcDbLine
 10
1065.790308
 20
672.774772
 30
0.0
 11
937.313835
 21
672.774772
 31
0.0
  0
LINE
  5
48A
100
AcDbEntity
  8
XARCH
100
AcDbLine
 10
1065.790308
 20
677.774772
 30
0.0
 11
937.313835
 21
677.774772
 31
0.0
  0
LINE
  5
48B
100
AcDbEntity
  8
XARCH
100
AcDbLine
 10
1065.790308
 20
682.774772
 30
0.0
 11
937.313835
 21
682.774772
 31
0.0
  0
LINE
  5
48C
100
AcDbEntity
  8
XARCH
100
AcDbLine
 10
1065.790308
 20
687.774772
 30
0.0
 11
937.313835
 21
687.774772
 31
0.0
  0
LINE
  5
48D
100
AcDbEntity
  8
XARCH
100
AcDbLine
 10
1065.790308
 20
692.774772
 30
0.0
 11
937.313835
 21
692.774772
 31
0.0
  0
LINE
  5
48E
100
AcDbEntity
  8
XARCH
100
AcDbLine
 10
1065.790308
 20
697.774772
 30
0.0
 11
937.313835
 21
697.774772
 31
0.0
  0
LINE
  5
48F
100
AcDbEntity
  8
XARCH
100
AcDbLine
 10
1065.790308
 20
702.774772
 30
0.0
 11
937.313835
 21
702.774772
 31
0.0
  0
LINE
  5
490
100
AcDbEntity
  8
XARCH
100
AcDbLine
 10
1065.790308
 20
707.774772
 30
0.0
 11
937.313835
 21
707.774772
 31
0.0
  0
LINE
  5
491
100
AcDbEntity
  8
XARCH
100
AcDbLine
 10
1065.790308
 20
712.774772
 30
0.0
 11
937.313835
 21
712.774772
 31
0.0
  0
LINE
  5
492
100
AcDbEntity
  8
XARCH
100
AcDbLine
 10
1065.790308
 20
717.774772
 30
0.0
 11
937.313835
 21
717.774772
 31
0.0
  0
LINE
  5
493
100
AcDbEntity
  8
XARCH
100
AcDbLine
 10
1065.790308
 20
722.774772
 30
0.0
 11
937.313835
 21
722.774772
 31
0.0
  0
LINE
  5
494
100
AcDbEntity
  8
XARCH
100
AcDbLine
 10
1065.790308
 20
727.774772
 30
0.0
 11
937.313835
 21
727.774772
 31
0.0
  0
LINE
  5
495
100
AcDbEntity
  8
XARCH
100
AcDbLine
 10
1065.790308
 20
732.774772
 30
0.0
 11
937.313835
 21
732.774772
 31
0.0
  0
LINE
  5
496
100
AcDbEntity
  8
XARCH
100
AcDbLine
 10
1065.790308
 20
737.774772
 30
0.0
 11
937.313835
 21
737.774772
 31
0.0
  0
LINE
  5
497
100
AcDbEntity
  8
XARCH
100
AcDbLine
 10
1065.790308
 20
742.774772
 30
0.0
 11
937.313835
 21
742.774772
 31
0.0
  0
LINE
  5
498
100
AcDbEntity
  8
XARCH
100
AcDbLine
 10
1065.790308
 20
747.774772
 30
0.0
 11
937.313835
 21
747.774772
 31
0.0
  0
LINE
  5
499
100
AcDbEntity
  8
XARCH
100
AcDbLine
 10
1065.790308
 20
752.774772
 30
0.0
 11
937.313835
 21
752.774772
 31
0.0
  0
LINE
  5
49A
100
AcDbEntity
  8
XARCH
100
AcDbLine
 10
1065.790308
 20
757.774772
 30
0.0
 11
937.313835
 21
757.774772
 31
0.0
  0
LINE
  5
49B
100
AcDbEntity
  8
XARCH
100
AcDbLine
 10
1065.790308
 20
762.774772
 30
0.0
 11
937.313835
 21
762.774772
 31
0.0
  0
LINE
  5
49C
100
AcDbEntity
  8
XARCH
100
AcDbLine
 10
937.313835
 20
766.298163
 30
0.0
 11
915.62926
 21
766.298163
 31
0.0
  0
LINE
  5
49D
100
AcDbEntity
  8
XARCH
100
AcDbLine
 10
278.764616
 20
1018.216272
 30
0.0
 11
278.764616
 21
913.959083
 31
0.0
  0
LINE
  5
49E
100
AcDbEntity
  8
XARCH
100
AcDbLine
 10
283.764616
 20
1018.216272
 30
0.0
 11
283.764616
 21
913.959083
 31
0.0
  0
LINE
  5
49F
100
AcDbEntity
  8
XARCH
100
AcDbLine
 10
288.764616
 20
1018.216272
 30
0.0
 11
288.764616
 21
913.959083
 31
0.0
  0
LINE
  5
4A0
100
AcDbEntity
  8
XARCH
100
AcDbLine
 10
293.764616
 20
1018.216272
 30
0.0
 11
293.764616
 21
913.959083
 31
0.0
  0
LINE
  5
4A1
100
AcDbEntity
  8
XARCH
100
AcDbLine
 10
298.764616
 20
1018.216272
 30
0.0
 11
298.764616
 21
913.959083
 31
0.0
  0
LINE
  5
4A2
100
AcDbEntity
  8
XARCH
100
AcDbLine
 10
303.764616
 20
1018.216272
 30
0.0
 11
303.764616
 21
913.959083
 31
0.0
  0
LINE
  5
4A3
100
AcDbEntity
  8
XARCH
100
AcDbLine
 10
308.764616
 20
1018.216272
 30
0.0
 11
308.764616
 21
913.959083
 31
0.0
  0
LINE
  5
4A4
100
AcDbEntity
  8
XARCH
100
AcDbLine
 10
313.764616
 20
1018.216272
 30
0.0
 11
313.764616
 21
913.959083
 31
0.0
  0
LINE
  5
4A5
100
AcDbEntity
  8
XARCH
100
AcDbLine
 10
318.764616
 20
1018.216272
 30
0.0
 11
318.764616
 21
913.959083
 31
0.0
  0
LINE
  5
4A6
100
AcDbEntity
  8
XARCH
100
AcDbLine
 10
323.764616
 20
1018.216272
 30
0.0
 11
323.764616
 21
913.959083
 31
0.0
  0
LINE
  5
4A7
100
AcDbEntity
  8
XARCH
100
AcDbLine
 10
328.764616
 20
1018.216272
 30
0.0
 11
328.764616
 21
913.959083
 31
0.0
  0
LINE
  5
4A8
100
AcDbEntity
  8
XARCH
100
AcDbLine
 10
333.764616
 20
1018.216272
 30
0.0
 11
333.764616
 21
913.959083
 31
0.0
  0
LINE
  5
4A9
100
AcDbEntity
  8
XARCH
100
AcDbLine
 10
338.764616
 20
1018.216272
 30
0.0
 11
338.764616
 21
913.959083
 31
0.0
  0
LINE
  5
4AA
100
AcDbEntity
  8
XARCH
100
AcDbLine
 10
343.764616
 20
1018.216272
 30
0.0
 11
343.764616
 21
913.959083
 31
0.0
  0
LINE
  5
4AB
100
AcDbEntity
  8
XARCH
100
AcDbLine
 10
348.764616
 20
1018.216272
 30
0.0
 11
348.764616
 21
913.959083
 31
0.0
  0
LINE
  5
4AC
100
AcDbEntity
  8
XARCH
100
AcDbLine
 10
353.764616
 20
1018.216272
 30
0.0
 11
353.764616
 21
913.959083
 31
0.0
  0
LINE
  5
4AD
100
AcDbEntity
  8
XARCH
100
AcDbLine
 10
358.764616
 20
1018.216272
 30
0.0
 11
358.764616
 21
913.959083
 31
0.0
  0
LINE
  5
4AE
100
AcDbEntity
  8
XARCH
100
AcDbLine
 10
363.764616
 20
1018.216272
 30
0.0
 11
363.764616
 21
913.959083
 31
0.0
  0
LINE
  5
4AF
100
AcDbEntity
  8
XARCH
100
AcDbLine
 10
279.587833
 20
1137.479094
 30
0.0
 11
279.587833
 21
1032.167749
 31
0.0
  0
LINE
  5
4B0
100
AcDbEntity
  8
XARCH
100
AcDbLine
 10
284.587833
 20
1137.479094
 30
0.0
 11
284.587833
 21
1032.167749
 31
0.0
  0
LINE
  5
4B1
100
AcDbEntity
  8
XARCH
100
AcDbLine
 10
289.587833
 20
1137.479094
 30
0.0
 11
289.587833
 21
1032.167749
 31
0.0
  0
LINE
  5
4B2
100
AcDbEntity
  8
XARCH
100
AcDbLine
 10
294.587833
 20
1137.479094
 30
0.0
 11
294.587833
 21
1032.167749
 31
0.0
  0
LINE
  5
4B3
100
AcDbEntity
  8
XARCH
100
AcDbLine
 10
299.587833
 20
1137.479094
 30
0.0
 11
299.587833
 21
1032.167749
 31
0.0
  0
LINE
  5
4B4
100
AcDbEntity
  8
XARCH
100
AcDbLine
 10
304.587833
 20
1137.479094
 30
0.0
 11
304.587833
 21
1032.167749
 31
0.0
  0
LINE
  5
4B5
100
AcDbEntity
  8
XARCH
100
AcDbLine
 10
309.587833
 20
1137.479094
 30
0.0
 11
309.587833
 21
1032.167749
 31
0.0
  0
LINE
  5
4B6
100
AcDbEntity
  8
XARCH
100
AcDbLine
 10
314.587833
 20
1137.479094
 30
0.0
 11
314.587833
 21
1032.167749
 31
0.0
  0
LINE
  5
4B7
100
AcDbEntity
  8
XARCH
100
AcDbLine
 10
319.587833
 20
1137.479094
 30
0.0
 11
319.587833
 21
1032.167749
 31
0.0
  0
LINE
  5
4B8
100
AcDbEntity
  8
XARCH
100
AcDbLine
 10
324.587833
 20
1137.479094
 30
0.0
 11
324.587833
 21
1032.167749
 31
0.0
  0
LINE
  5
4B9
100
AcDbEntity
  8
XARCH
100
AcDbLine
 10
329.587833
 20
1137.479094
 30
0.0
 11
329.587833
 21
1032.167749
 31
0.0
  0
LINE
  5
4BA
100
AcDbEntity
  8
XARCH
100
AcDbLine
 10
334.587833
 20
1137.479094
 30
0.0
 11
334.587833
 21
1032.167749
 31
0.0
  0
LINE
  5
4BB
100
AcDbEntity
  8
XARCH
100
AcDbLine
 10
339.587833
 20
1137.479094
 30
0.0
 11
339.587833
 21
1032.167749
 31
0.0
  0
LINE
  5
4BC
100
AcDbEntity
  8
XARCH
100
AcDbLine
 10
344.587833
 20
1137.479094
 30
0.0
 11
344.587833
 21
1032.167749
 31
0.0
  0
LINE
  5
4BD
100
AcDbEntity
  8
XARCH
100
AcDbLine
 10
349.587833
 20
1137.479094
 30
0.0
 11
349.587833
 21
1032.167749
 31
0.0
  0
LINE
  5
4BE
100
AcDbEntity
  8
XARCH
100
AcDbLine
 10
354.587833
 20
1137.479094
 30
0.0
 11
354.587833
 21
1032.167749
 31
0.0
  0
LINE
  5
4BF
100
AcDbEntity
  8
XARCH
100
AcDbLine
 10
359.587833
 20
1137.479094
 30
0.0
 11
359.587833
 21
1032.167749
 31
0.0
  0
LINE
  5
4C0
100
AcDbEntity
  8
XARCH
100
AcDbLine
 10
364.587833
 20
1137.479094
 30
0.0
 11
364.587833
 21
1032.167749
 31
0.0
  0
LINE
  5
4C1
100
AcDbEntity
  8
XARCH
100
AcDbLine
 10
584.985029
 20
1494.398367
 30
0.0
 11
543.301074
 21
1494.398367
 31
0.0
  0
LINE
  5
4C2
100
AcDbEntity
  8
XARCH
100
AcDbLine
 10
643.796251
 20
1640.274457
 30
0.0
 11
643.796251
 21
1628.444404
 31
0.0
  0
LINE
  5
4C3
100
AcDbEntity
  8
XARCH
100
AcDbLine
 10
2007.066231
 20
1636.045521
 30
0.0
 11
1914.852027
 21
1636.045521
 31
0.0
  0
LINE
  5
4C4
100
AcDbEntity
  8
XARCH
100
AcDbLine
 10
2007.066231
 20
1631.816585
 30
0.0
 11
1914.852027
 21
1631.816585
 31
0.0
  0
LINE
  5
4C5
100
AcDbEntity
  8
XARCH
100
AcDbLine
 10
2007.066231
 20
1633.93105
 30
0.0
 11
1914.852027
 21
1633.93105
 31
0.0
  0
LINE
  5
4C6
100
AcDbEntity
  8
XARCH
100
AcDbLine
 10
643.796251
 20
1631.816585
 30
0.0
 11
554.389888
 21
1631.816585
 31
0.0
  0
LINE
  5
4C7
100
AcDbEntity
  8
XARCH
100
AcDbLine
 10
643.796251
 20
1633.93105
 30
0.0
 11
554.389888
 21
1633.93105
 31
0.0
  0
LINE
  5
4C8
100
AcDbEntity
  8
XARCH
100
AcDbLine
 10
643.796251
 20
1636.045521
 30
0.0
 11
554.389888
 21
1636.045521
 31
0.0
  0
LINE
  5
4C9
100
AcDbEntity
  8
XARCH
100
AcDbLine
 10
538.321941
 20
1510.943726
 30
0.0
 11
538.321941
 21
1603.629887
 31
0.0
  0
LINE
  5
4CA
100
AcDbEntity
  8
XARCH
100
AcDbLine
 10
534.62027
 20
1510.943726
 30
0.0
 11
534.62027
 21
1603.629887
 31
0.0
  0
LINE
  5
4CB
100
AcDbEntity
  8
XARCH
100
AcDbLine
 10
516.470357
 20
1422.305773
 30
0.0
 11
516.470357
 21
1441.1113
 31
0.0
  0
LINE
  5
4CC
100
AcDbEntity
  8
XARCH
100
AcDbLine
 10
584.985029
 20
1505.398367
 30
0.0
 11
543.301074
 21
1505.398367
 31
0.0
  0
LINE
  5
4CD
100
AcDbEntity
  8
XARCH
100
AcDbLine
 10
584.985029
 20
1516.398367
 30
0.0
 11
543.301074
 21
1516.398367
 31
0.0
  0
LINE
  5
4CE
100
AcDbEntity
  8
XARCH
100
AcDbLine
 10
584.985029
 20
1527.398367
 30
0.0
 11
543.301074
 21
1527.398367
 31
0.0
  0
LINE
  5
4CF
100
AcDbEntity
  8
XARCH
100
AcDbLine
 10
584.985029
 20
1538.398367
 30
0.0
 11
543.301074
 21
1538.398367
 31
0.0
  0
LINE
  5
4D0
100
AcDbEntity
  8
XARCH
100
AcDbLine
 10
584.985029
 20
1549.398367
 30
0.0
 11
543.301074
 21
1549.398367
 31
0.0
  0
LINE
  5
4D1
100
AcDbEntity
  8
XARCH
100
AcDbLine
 10
584.985029
 20
1560.398367
 30
0.0
 11
543.301074
 21
1560.398367
 31
0.0
  0
LINE
  5
4D2
100
AcDbEntity
  8
XARCH
100
AcDbLine
 10
584.985029
 20
1571.398367
 30
0.0
 11
543.301074
 21
1571.398367
 31
0.0
  0
LINE
  5
4D3
100
AcDbEntity
  8
XARCH
100
AcDbLine
 10
584.985029
 20
1582.398367
 30
0.0
 11
543.301074
 21
1582.398367
 31
0.0
  0
LINE
  5
4D4
100
AcDbEntity
  8
XARCH
100
AcDbLine
 10
650.248603
 20
1505.398367
 30
0.0
 11
614.098063
 21
1505.398367
 31
0.0
  0
LINE
  5
4D5
100
AcDbEntity
  8
XARCH
100
AcDbLine
 10
650.248603
 20
1516.398367
 30
0.0
 11
614.098063
 21
1516.398367
 31
0.0
  0
LINE
  5
4D6
100
AcDbEntity
  8
XARCH
100
AcDbLine
 10
650.248603
 20
1527.398367
 30
0.0
 11
614.098063
 21
1527.398367
 31
0.0
  0
LINE
  5
4D7
100
AcDbEntity
  8
XARCH
100
AcDbLine
 10
650.248603
 20
1538.398367
 30
0.0
 11
614.098063
 21
1538.398367
 31
0.0
  0
LINE
  5
4D8
100
AcDbEntity
  8
XARCH
100
AcDbLine
 10
650.248603
 20
1549.398367
 30
0.0
 11
614.098063
 21
1549.398367
 31
0.0
  0
LINE
  5
4D9
100
AcDbEntity
  8
XARCH
100
AcDbLine
 10
650.248603
 20
1560.398367
 30
0.0
 11
614.098063
 21
1560.398367
 31
0.0
  0
LINE
  5
4DA
100
AcDbEntity
  8
XARCH
100
AcDbLine
 10
650.248603
 20
1571.398367
 30
0.0
 11
619.862681
 21
1571.398367
 31
0.0
  0
LINE
  5
4DB
100
AcDbEntity
  8
XARCH
100
AcDbLine
 10
599.203776
 20
1585.382615
 30
0.0
 11
599.203776
 21
1628.444404
 31
0.0
  0
LINE
  5
4DC
100
AcDbEntity
  8
XARCH
100
AcDbLine
 10
588.203776
 20
1585.382615
 30
0.0
 11
588.203776
 21
1628.444404
 31
0.0
  0
LINE
  5
4DD
100
AcDbEntity
  8
XARCH
100
AcDbLine
 10
637.925148
 20
1582.398367
 30
0.0
 11
615.542786
 21
1582.398367
 31
0.0
  0
LINE
  5
4DE
100
AcDbEntity
  8
XARCH
100
AcDbLine
 10
765.959499
 20
1631.816585
 30
0.0
 11
672.314791
 21
1631.816585
 31
0.0
  0
LINE
  5
4DF
100
AcDbEntity
  8
XARCH
100
AcDbLine
 10
765.959499
 20
1633.93105
 30
0.0
 11
672.314791
 21
1633.93105
 31
0.0
  0
LINE
  5
4E0
100
AcDbEntity
  8
XARCH
100
AcDbLine
 10
765.959499
 20
1636.045521
 30
0.0
 11
672.314791
 21
1636.045521
 31
0.0
  0
LINE
  5
4E1
100
AcDbEntity
  8
XARCH
100
AcDbLine
 10
922.070584
 20
1631.816585
 30
0.0
 11
828.711946
 21
1631.816585
 31
0.0
  0
LINE
  5
4E2
100
AcDbEntity
  8
XARCH
100
AcDbLine
 10
922.070584
 20
1633.93105
 30
0.0
 11
828.711946
 21
1633.93105
 31
0.0
  0
LINE
  5
4E3
100
AcDbEntity
  8
XARCH
100
AcDbLine
 10
922.070584
 20
1636.045521
 30
0.0
 11
828.711946
 21
1636.045521
 31
0.0
  0
LINE
  5
4E4
100
AcDbEntity
  8
XARCH
100
AcDbLine
 10
1036.439616
 20
1631.816585
 30
0.0
 11
943.178289
 21
1631.816585
 31
0.0
  0
LINE
  5
4E5
100
AcDbEntity
  8
XARCH
100
AcDbLine
 10
1036.439616
 20
1633.93105
 30
0.0
 11
943.178289
 21
1633.93105
 31
0.0
  0
LINE
  5
4E6
100
AcDbEntity
  8
XARCH
100
AcDbLine
 10
1036.439616
 20
1636.045521
 30
0.0
 11
943.178289
 21
1636.045521
 31
0.0
  0
LINE
  5
4E7
100
AcDbEntity
  8
XARCH
100
AcDbLine
 10
1190.340276
 20
1633.93105
 30
0.0
 11
1099.7667
 21
1633.93105
 31
0.0
  0
LINE
  5
4E8
100
AcDbEntity
  8
XARCH
100
AcDbLine
 10
1190.340276
 20
1631.816585
 30
0.0
 11
1099.7667
 21
1631.816585
 31
0.0
  0
LINE
  5
4E9
100
AcDbEntity
  8
XARCH
100
AcDbLine
 10
1190.340276
 20
1636.045521
 30
0.0
 11
1099.7667
 21
1636.045521
 31
0.0
  0
LINE
  5
4EA
100
AcDbEntity
  8
XARCH
100
AcDbLine
 10
1308.459118
 20
1631.816585
 30
0.0
 11
1213.276159
 21
1631.816585
 31
0.0
  0
LINE
  5
4EB
100
AcDbEntity
  8
XARCH
100
AcDbLine
 10
1308.459118
 20
1636.045521
 30
0.0
 11
1213.276159
 21
1636.045521
 31
0.0
  0
LINE
  5
4EC
100
AcDbEntity
  8
XARCH
100
AcDbLine
 10
1308.459118
 20
1633.93105
 30
0.0
 11
1213.276159
 21
1633.93105
 31
0.0
  0
LINE
  5
4ED
100
AcDbEntity
  8
XARCH
100
AcDbLine
 10
1464.467599
 20
1636.045521
 30
0.0
 11
1372.072651
 21
1636.045521
 31
0.0
  0
LINE
  5
4EE
100
AcDbEntity
  8
XARCH
100
AcDbLine
 10
1464.467599
 20
1633.93105
 30
0.0
 11
1372.072651
 21
1633.93105
 31
0.0
  0
LINE
  5
4EF
100
AcDbEntity
  8
XARCH
100
AcDbLine
 10
1464.467599
 20
1631.816585
 30
0.0
 11
1372.072651
 21
1631.816585
 31
0.0
  0
LINE
  5
4F0
100
AcDbEntity
  8
XARCH
100
AcDbLine
 10
1580.180186
 20
1631.816585
 30
0.0
 11
1485.866441
 21
1631.816585
 31
0.0
  0
LINE
  5
4F1
100
AcDbEntity
  8
XARCH
100
AcDbLine
 10
1580.180186
 20
1636.045521
 30
0.0
 11
1485.866441
 21
1636.045521
 31
0.0
  0
LINE
  5
4F2
100
AcDbEntity
  8
XARCH
100
AcDbLine
 10
1580.180186
 20
1633.93105
 30
0.0
 11
1485.866441
 21
1633.93105
 31
0.0
  0
LINE
  5
4F3
100
AcDbEntity
  8
XARCH
100
AcDbLine
 10
1736.768975
 20
1631.816585
 30
0.0
 11
1640.825001
 21
1631.816585
 31
0.0
  0
LINE
  5
4F4
100
AcDbEntity
  8
XARCH
100
AcDbLine
 10
1736.768975
 20
1633.93105
 30
0.0
 11
1640.825001
 21
1633.93105
 31
0.0
  0
LINE
  5
4F5
100
AcDbEntity
  8
XARCH
100
AcDbLine
 10
1736.768975
 20
1636.045521
 30
0.0
 11
1640.825001
 21
1636.045521
 31
0.0
  0
LINE
  5
4F6
100
AcDbEntity
  8
XARCH
100
AcDbLine
 10
1850.392119
 20
1633.93105
 30
0.0
 11
1757.403324
 21
1633.93105
 31
0.0
  0
LINE
  5
4F7
100
AcDbEntity
  8
XARCH
100
AcDbLine
 10
1850.392119
 20
1636.045521
 30
0.0
 11
1757.403324
 21
1636.045521
 31
0.0
  0
LINE
  5
4F8
100
AcDbEntity
  8
XARCH
100
AcDbLine
 10
1850.392119
 20
1631.816585
 30
0.0
 11
1757.403324
 21
1631.816585
 31
0.0
  0
LINE
  5
4F9
100
AcDbEntity
  8
XARCH
100
AcDbLine
 10
2245.686464
 20
1635.146832
 30
0.0
 11
2213.174935
 21
1635.146832
 31
0.0
  0
LINE
  5
4FA
100
AcDbEntity
  8
XARCH
100
AcDbLine
 10
2242.490851
 20
1639.051164
 30
0.0
 11
2230.06345
 21
1639.051164
 31
0.0
  0
LINE
  5
4FB
100
AcDbEntity
  8
XARCH
100
AcDbLine
 10
2213.174935
 20
1630.532627
 30
0.0
 11
2207.493837
 21
1630.532627
 31
0.0
  0
LINE
  5
4FC
100
AcDbEntity
  8
XARCH
100
AcDbLine
 10
2207.493837
 20
1635.146832
 30
0.0
 11
2207.493837
 21
1630.532627
 31
0.0
  0
LINE
  5
4FD
100
AcDbEntity
  8
XARCH
100
AcDbLine
 10
2213.174935
 20
1635.146832
 30
0.0
 11
2213.174935
 21
1630.532627
 31
0.0
  0
LINE
  5
4FE
100
AcDbEntity
  8
XARCH
100
AcDbLine
 10
2242.490851
 20
1642.955496
 30
0.0
 11
2242.490851
 21
1635.146832
 31
0.0
  0
LINE
  5
4FF
100
AcDbEntity
  8
XARCH
100
AcDbLine
 10
2215.505641
 20
1642.955496
 30
0.0
 11
2215.505641
 21
1635.146832
 31
0.0
  0
LINE
  5
500
100
AcDbEntity
  8
XARCH
100
AcDbLine
 10
2205.208657
 20
1642.955496
 30
0.0
 11
2205.208657
 21
1635.146832
 31
0.0
  0
LINE
  5
501
100
AcDbEntity
  8
XARCH
100
AcDbLine
 10
2179.998788
 20
1642.955496
 30
0.0
 11
2179.998788
 21
1635.146832
 31
0.0
  0
LINE
  5
502
100
AcDbEntity
  8
XARCH
100
AcDbLine
 10
2191.005916
 20
1642.955496
 30
0.0
 11
2191.005916
 21
1635.146832
 31
0.0
  0
LINE
  5
503
100
AcDbEntity
  8
XARCH
100
AcDbLine
 10
2193.136325
 20
1642.955496
 30
0.0
 11
2193.136325
 21
1635.146832
 31
0.0
  0
LINE
  5
504
100
AcDbEntity
  8
XARCH
100
AcDbLine
 10
2227.933042
 20
1642.955496
 30
0.0
 11
2227.933042
 21
1635.146832
 31
0.0
  0
LINE
  5
505
100
AcDbEntity
  8
XARCH
100
AcDbLine
 10
2230.06345
 20
1642.955496
 30
0.0
 11
2230.06345
 21
1635.146832
 31
0.0
  0
LINE
  5
506
100
AcDbEntity
  8
XARCH
100
AcDbLine
 10
2227.933042
 20
1639.051164
 30
0.0
 11
2215.505641
 21
1639.051164
 31
0.0
  0
LINE
  5
507
100
AcDbEntity
  8
XARCH
100
AcDbLine
 10
2191.005916
 20
1639.051164
 30
0.0
 11
2179.998788
 21
1639.051164
 31
0.0
  0
LINE
  5
508
100
AcDbEntity
  8
XARCH
100
AcDbLine
 10
2205.208657
 20
1639.051164
 30
0.0
 11
2193.136325
 21
1639.051164
 31
0.0
  0
LINE
  5
509
100
AcDbEntity
  8
XARCH
100
AcDbLine
 10
2207.493837
 20
1635.146832
 30
0.0
 11
2176.602878
 21
1635.146832
 31
0.0
  0
LINE
  5
50A
100
AcDbEntity
  8
XARCH
100
AcDbLine
 10
1416.95443
 20
1338.232536
 30
0.0
 11
1442.858123
 21
1338.232536
 31
0.0
  0
LINE
  5
50B
100
AcDbEntity
  8
XARCH
100
AcDbLine
 10
1446.409153
 20
1338.232536
 30
0.0
 11
1469.530167
 21
1338.232536
 31
0.0
  0
LINE
  5
50C
100
AcDbEntity
  8
XARCH
100
AcDbLine
 10
1473.463822
 20
1338.232536
 30
0.0
 11
1496.493045
 21
1338.232536
 31
0.0
  0
LINE
  5
50D
100
AcDbEntity
  8
XARCH
100
AcDbLine
 10
1509.156269
 20
1338.232536
 30
0.0
 11
1530.167041
 21
1338.232536
 31
0.0
  0
LINE
  5
50E
100
AcDbEntity
  8
XARCH
100
AcDbLine
 10
1534.103381
 20
1338.232536
 30
0.0
 11
1556.842791
 21
1338.232536
 31
0.0
  0
LINE
  5
50F
100
AcDbEntity
  8
XARCH
100
AcDbLine
 10
1561.16081
 20
1338.232536
 30
0.0
 11
1585.342067
 21
1338.232536
 31
0.0
  0
LINE
  5
510
100
AcDbEntity
  8
XARCH
100
AcDbLine
 10
1259.11501
 20
1339.031573
 30
0.0
 11
1233.03298
 21
1339.031573
 31
0.0
  0
LINE
  5
511
100
AcDbEntity
  8
XARCH
100
AcDbLine
 10
1229.850975
 20
1339.031573
 30
0.0
 11
1205.47797
 21
1339.031573
 31
0.0
  0
LINE
  5
512
100
AcDbEntity
  8
XARCH
100
AcDbLine
 10
1194.25425
 20
1339.031573
 30
0.0
 11
1170.459512
 21
1339.031573
 31
0.0
  0
LINE
  5
513
100
AcDbEntity
  8
XARCH
100
AcDbLine
 10
1166.235476
 20
1339.031573
 30
0.0
 11
1143.878956
 21
1339.031573
 31
0.0
  0
LINE
  5
514
100
AcDbEntity
  8
XARCH
100
AcDbLine
 10
994.678638
 20
1340.059348
 30
0.0
 11
968.002284
 21
1340.059348
 31
0.0
  0
LINE
  5
515
100
AcDbEntity
  8
XARCH
100
AcDbLine
 10
963.68502
 20
1340.059348
 30
0.0
 11
940.658255
 21
1340.059348
 31
0.0
  0
LINE
  5
516
100
AcDbEntity
  8
XARCH
100
AcDbLine
 10
935.767565
 20
1340.059348
 30
0.0
 11
912.547728
 21
1340.059348
 31
0.0
  0
LINE
  5
517
100
AcDbEntity
  8
XARCH
100
AcDbLine
 10
900.744683
 20
1340.059348
 30
0.0
 11
876.949983
 21
1340.059348
 31
0.0
  0
LINE
  5
518
100
AcDbEntity
  8
XARCH
100
AcDbLine
 10
873.5907
 20
1340.059348
 30
0.0
 11
851.235238
 21
1340.059348
 31
0.0
  0
LINE
  5
519
100
AcDbEntity
  8
XARCH
100
AcDbLine
 10
847.768098
 20
1340.059348
 30
0.0
 11
822.93236
 21
1340.059348
 31
0.0
  0
ARC
  5
51A
100
AcDbEntity
  8
XARCH
100
AcDbCircle
 10
1728.125036
 20
1504.062439
 30
0.0
 40
818.814763
100
AcDbArc
 50
243.063073
 51
310.098498
  0
ARC
  5
51B
100
AcDbEntity
  8
XARCH
100
AcDbCircle
 10
1728.125036
 20
1504.062439
 30
0.0
 40
822.814763
100
AcDbArc
 50
243.63601
 51
251.338962
  0
ARC
  5
51C
100
AcDbEntity
  8
XARCH
100
AcDbCircle
 10
1728.125036
 20
1504.062439
 30
0.0
 40
828.814763
100
AcDbArc
 50
243.621124
 51
251.347234
  0
ARC
  5
51D
100
AcDbEntity
  8
XARCH
100
AcDbCircle
 10
1728.125036
 20
1504.062439
 30
0.0
 40
822.814763
100
AcDbArc
 50
253.175303
 51
261.205856
  0
ARC
  5
51E
100
AcDbEntity
  8
XARCH
100
AcDbCircle
 10
1728.125036
 20
1504.062439
 30
0.0
 40
828.814763
100
AcDbArc
 50
253.184508
 51
261.208056
  0
ARC
  5
51F
100
AcDbEntity
  8
XARCH
100
AcDbCircle
 10
1728.125036
 20
1504.062439
 30
0.0
 40
828.814763
100
AcDbArc
 50
262.962419
 51
271.017558
  0
ARC
  5
520
100
AcDbEntity
  8
XARCH
100
AcDbCircle
 10
1728.125036
 20
1504.062439
 30
0.0
 40
822.814763
100
AcDbArc
 50
262.974191
 51
271.014888
  0
ARC
  5
521
100
AcDbEntity
  8
XARCH
100
AcDbCircle
 10
1728.125036
 20
1504.062439
 30
0.0
 40
828.814763
100
AcDbArc
 50
272.683329
 51
280.763202
  0
ARC
  5
522
100
AcDbEntity
  8
XARCH
100
AcDbCircle
 10
1728.125036
 20
1504.062439
 30
0.0
 40
822.814763
100
AcDbArc
 50
272.701522
 51
280.760177
  0
ARC
  5
523
100
AcDbEntity
  8
XARCH
100
AcDbCircle
 10
1728.125036
 20
1504.062439
 30
0.0
 40
828.814763
100
AcDbArc
 50
282.430815
 51
290.580815
  0
ARC
  5
524
100
AcDbEntity
  8
XARCH
100
AcDbCircle
 10
1728.125036
 20
1504.062439
 30
0.0
 40
822.814763
100
AcDbArc
 50
282.424239
 51
290.598281
  0
LINE
  5
525
100
AcDbEntity
  8
XARCH
100
AcDbLine
 10
1959.276684
 20
714.383359
 30
0.0
 11
1961.00654
 21
708.637952
 31
0.0
  0
ARC
  5
526
100
AcDbEntity
  8
XARCH
100
AcDbCircle
 10
1728.125036
 20
1504.062439
 30
0.0
 40
822.814763
100
AcDbArc
 50
292.319887
 51
300.30258
  0
ARC
  5
527
100
AcDbEntity
  8
XARCH
100
AcDbCircle
 10
1728.125036
 20
1504.062439
 30
0.0
 40
828.814763
100
AcDbArc
 50
292.301686
 51
300.28998
  0
ARC
  5
528
100
AcDbEntity
  8
XARCH
100
AcDbCircle
 10
1728.125036
 20
1504.062439
 30
0.0
 40
828.814763
100
AcDbArc
 50
302.038524
 51
309.777586
  0
ARC
  5
529
100
AcDbEntity
  8
XARCH
100
AcDbCircle
 10
1728.125036
 20
1504.062439
 30
0.0
 40
822.814763
100
AcDbArc
 50
302.047371
 51
309.757296
  0
ARC
  5
52A
100
AcDbEntity
  8
XARCH
100
AcDbCircle
 10
1919.705953
 20
1296.187134
 30
0.0
 40
546.787424
100
AcDbArc
 50
7.849263
 51
42.018071
  0
LINE
  5
52B
100
AcDbEntity
  8
XARCH
100
AcDbLine
 10
2298.716313
 20
1635.62165
 30
0.0
 11
2325.932781
 21
1662.187478
 31
0.0
  0
LINE
  5
52C
100
AcDbEntity
  8
XARCH
100
AcDbLine
 10
2461.370409
 20
1370.860455
 30
0.0
 11
2525.263717
 21
1370.860455
 31
0.0
  0
LINE
  5
52D
100
AcDbEntity
  8
XARCH
100
AcDbLine
 10
2525.263717
 20
1370.860455
 30
0.0
 11
2525.263717
 21
993.862373
 31
0.0
  0
LINE
  5
52E
100
AcDbEntity
  8
XARCH
100
AcDbLine
 10
2525.263717
 20
993.862373
 30
0.0
 11
2440.747339
 21
993.862373
 31
0.0
  0
ARC
  5
52F
100
AcDbEntity
  8
XARCH
100
AcDbCircle
 10
1428.750411
 20
1775.163229
 30
0.0
 40
1278.502566
100
AcDbArc
 50
314.700161
 51
322.330468
  0
LINE
  5
530
100
AcDbEntity
  8
XARCH
100
AcDbLine
 10
2297.211151
 20
896.416776
 30
0.0
 11
2328.044903
 21
866.406811
 31
0.0
  0
LINE
  5
531
100
AcDbEntity
  8
XARCH
100
AcDbLine
 10
2305.58078
 20
905.016154
 30
0.0
 11
2327.935843
 21
883.258353
 31
0.0
  0
ARC
  5
532
100
AcDbEntity
  8
XARCH
100
AcDbCircle
 10
1428.750411
 20
1775.163229
 30
0.0
 40
1266.502566
100
AcDbArc
 50
315.232899
 51
322.596709
  0
LINE
  5
533
100
AcDbEntity
  8
XARCH
100
AcDbLine
 10
2513.263717
 20
1005.862373
 30
0.0
 11
2434.834375
 21
1005.862373
 31
0.0
  0
LINE
  5
534
100
AcDbEntity
  8
XARCH
100
AcDbLine
 10
2513.263717
 20
1358.860455
 30
0.0
 11
2513.263717
 21
1005.862373
 31
0.0
  0
LINE
  5
535
100
AcDbEntity
  8
XARCH
100
AcDbLine
 10
2450.808245
 20
1358.860455
 30
0.0
 11
2513.263717
 21
1358.860455
 31
0.0
  0
ARC
  5
536
100
AcDbEntity
  8
XARCH
100
AcDbCircle
 10
1919.705953
 20
1296.187134
 30
0.0
 40
534.787424
100
AcDbArc
 50
6.730128
 51
40.679262
  0
LINE
  5
537
100
AcDbEntity
  8
XARCH
100
AcDbLine
 10
2306.62776
 20
1626.575025
 30
0.0
 11
2325.272857
 21
1644.774391
 31
0.0
  0
LINE
  5
538
100
AcDbEntity
  8
XARCH
100
AcDbLine
 10
2314.557429
 20
913.024731
 30
0.0
 11
2327.746822
 21
900.18772
 31
0.0
  0
ARC
  5
539
100
AcDbEntity
  8
XARCH
100
AcDbCircle
 10
1428.750411
 20
1775.163229
 30
0.0
 40
1254.502566
100
AcDbArc
 50
315.77578
 51
322.867073
  0
LINE
  5
53A
100
AcDbEntity
  8
XARCH
100
AcDbLine
 10
2501.263717
 20
1017.862373
 30
0.0
 11
2428.886452
 21
1017.862373
 31
0.0
  0
LINE
  5
53B
100
AcDbEntity
  8
XARCH
100
AcDbLine
 10
2501.263717
 20
1346.860455
 30
0.0
 11
2501.263717
 21
1017.862373
 31
0.0
  0
LINE
  5
53C
100
AcDbEntity
  8
XARCH
100
AcDbLine
 10
2440.031722
 20
1346.860455
 30
0.0
 11
2501.263717
 21
1346.860455
 31
0.0
  0
ARC
  5
53D
100
AcDbEntity
  8
XARCH
100
AcDbCircle
 10
1919.705953
 20
1296.187134
 30
0.0
 40
522.787424
100
AcDbArc
 50
5.562362
 51
39.276854
  0
LINE
  5
53E
100
AcDbEntity
  8
XARCH
100
AcDbLine
 10
2314.335291
 20
1617.32936
 30
0.0
 11
2324.393617
 21
1627.147231
 31
0.0
  0
ARC
  5
53F
100
AcDbEntity
  8
XARCH
100
AcDbCircle
 10
1919.705953
 20
1296.187134
 30
0.0
 40
508.787424
100
AcDbArc
 50
2.619914
 51
9.053524
  0
ARC
  5
540
100
AcDbEntity
  8
XARCH
100
AcDbCircle
 10
1919.705953
 20
1296.187134
 30
0.0
 40
490.787424
100
AcDbArc
 50
0.004854
 51
9.075586
  0
ARC
  5
541
100
AcDbEntity
  8
XARCH
100
AcDbCircle
 10
1723.46591
 20
1513.031091
 30
0.0
 40
824.256977
100
AcDbArc
 50
322.19064
 51
325.730359
  0
LINE
  5
542
100
AcDbEntity
  8
XARCH
100
AcDbLine
 10
2404.629213
 20
1069.386765
 30
0.0
 11
2404.629213
 21
1048.901671
 31
0.0
  0
ARC
  5
543
100
AcDbEntity
  8
XARCH
100
AcDbCircle
 10
1919.705953
 20
1296.187134
 30
0.0
 40
508.787424
100
AcDbArc
 50
37.715166
 51
43.19906
  0
ARC
  5
544
100
AcDbEntity
  8
XARCH
  6
HIDDEN
100
AcDbCircle
 10
1919.705953
 20
1296.187134
 30
0.0
 40
508.787424
100
AcDbArc
 50
25.576091
 51
37.715166
  0
ARC
  5
545
100
AcDbEntity
  8
XARCH
100
AcDbCircle
 10
1919.705953
 20
1296.187134
 30
0.0
 40
508.787424
100
AcDbArc
 50
21.101755
 51
25.576091
  0
ARC
  5
546
100
AcDbEntity
  8
XARCH
  6
HIDDEN
100
AcDbCircle
 10
1919.705953
 20
1296.187134
 30
0.0
 40
508.787424
100
AcDbArc
 50
9.053524
 51
21.101755
  0
LINE
  5
547
100
AcDbEntity
  8
XARCH
  6
HIDDEN
100
AcDbLine
 10
2438.629213
 20
1296.228714
 30
0.0
 11
2438.629213
 21
1268.676921
 31
0.0
  0
LINE
  5
548
100
AcDbEntity
  8
XARCH
100
AcDbLine
 10
2438.629213
 20
1268.676921
 30
0.0
 11
2438.629213
 21
1244.033674
 31
0.0
  0
LINE
  5
549
100
AcDbEntity
  8
XARCH
  6
HIDDEN
100
AcDbLine
 10
2438.629213
 20
1244.033674
 30
0.0
 11
2438.629213
 21
1123.041974
 31
0.0
  0
LINE
  5
54A
100
AcDbEntity
  8
XARCH
100
AcDbLine
 10
2438.629213
 20
1123.041974
 30
0.0
 11
2438.629213
 21
1097.226503
 31
0.0
  0
LINE
  5
54B
100
AcDbEntity
  8
XARCH
  6
HIDDEN
100
AcDbLine
 10
2438.629213
 20
1097.226503
 30
0.0
 11
2438.629213
 21
1069.386765
 31
0.0
  0
LINE
  5
54C
100
AcDbEntity
  8
XARCH
100
AcDbLine
 10
2438.629213
 20
1069.386765
 30
0.0
 11
2438.629213
 21
1045.021048
 31
0.0
  0
ARC
  5
54D
100
AcDbEntity
  8
XARCH
100
AcDbCircle
 10
1723.46591
 20
1513.031091
 30
0.0
 40
842.256977
100
AcDbArc
 50
322.103261
 51
326.243689
  0
ARC
  5
54E
100
AcDbEntity
  8
XARCH
  6
HIDDEN
100
AcDbCircle
 10
1723.46591
 20
1513.031091
 30
0.0
 40
842.256977
100
AcDbArc
 50
315.162959
 51
322.103261
  0
TEXT
  5
54F
100
AcDbEntity
  8
XAT
100
AcDbText
 10
1238.81598
 20
471.331146
 30
0.0
 40
12.0
  1
COMPUTER SCIENCE BUILDING
100
AcDbText
  0
TEXT
  5
550
100
AcDbEntity
  8
XAT
100
AcDbText
 10
1238.81598
 20
450.759717
 30
0.0
 40
12.0
  1
    FIRST FLOOR PLAN
100
AcDbText
  0
TEXT
  5
551
100
AcDbEntity
  8
XAT
100
AcDbText
 10
419.480749
 20
1309.639516
 30
0.0
 40
12.0
  1
ELEV.
100
AcDbText
  0
TEXT
  5
552
100
AcDbEntity
  8
XAT
100
AcDbText
 10
836.377788
 20
1466.220105
 30
0.0
 40
12.0
  1
103                              102                            101
100
AcDbText
  0
TEXT
  5
553
100
AcDbEntity
  8
XAT
100
AcDbText
 10
1783.432929
 20
1543.305929
 30
0.0
 40
12.0
  1
101a
100
AcDbText
  0
TEXT
  5
554
100
AcDbEntity
  8
XAT
100
AcDbText
 10
1783.432929
 20
1398.770007
 30
0.0
 40
12.0
  1
101b
100
AcDbText
  0
TEXT
  5
555
100
AcDbEntity
  8
XAT
100
AcDbText
 10
1058.838867
 20
1220.509031
 30
0.0
 40
12.0
  1
WOMEN                         MEN                                              ELEC
100
AcDbText
  0
TEXT
  5
556
100
AcDbEntity
  8
XAT
100
AcDbText
 10
1978.627497
 20
1196.419707
 30
0.0
 40
12.0
  1
JAN
100
AcDbText
  0
TEXT
  5
557
100
AcDbEntity
  8
XAT
100
AcDbText
 10
530.331988
 20
1006.114074
 30
0.0
 40
12.0
  1
104
100
AcDbText
  0
TEXT
  5
558
100
AcDbEntity
  8
XAT
100
AcDbText
 10
552.020267
 20
806.172711
 30
0.0
 40
12.0
  1
CL.
100
AcDbText
  0
TEXT
  5
559
100
AcDbEntity
  8
XAT
100
AcDbText
 10
993.015408
 20
832.670961
 30
0.0
 40
12.0
  1
CL.     ELEC.
100
AcDbText
  0
TEXT
  5
55A
100
AcDbEntity
  8
XAT
100
AcDbText
 10
1691.860168
 20
1186.783982
 30
0.0
 40
12.0
  1
105
100
AcDbText
  0
SOLID
  5
55B
100
AcDbEntity
  8
XAT
100
AcDbTrace
 10
1879.756011
 20
1505.221106
 30
0.0
 11
1883.596011
 21
1505.221106
 31
0.0
 12
1881.676011
 22
1516.741106
 32
0.0
 13
1881.676011
 23
1516.741106
 33
0.0
  0
LINE
  5
55C
100
AcDbEntity
  8
XAT
100
AcDbLine
 10
1881.676011
 20
1505.221106
 30
0.0
 11
1881.676011
 21
1463.613983
 31
0.0
  0
TEXT
  5
55D
100
AcDbEntity
  8
XAT
100
AcDbText
 10
1873.00122
 20
1450.336252
 30
0.0
 40
9.6
  1
DN
 11
1873.00122
 21
1455.136252
 31
0.0
100
AcDbText
 73
     2
  0
SOLID
  5
55E
100
AcDbEntity
  8
XAT
100
AcDbTrace
 10
1924.421664
 20
1542.523133
 30
0.0
 11
1928.261664
 21
1542.523133
 31
0.0
 12
1926.341664
 22
1554.043133
 32
0.0
 13
1926.341664
 23
1554.043133
 33
0.0
  0
LINE
  5
55F
100
AcDbEntity
  8
XAT
100
AcDbLine
 10
1926.341664
 20
1542.523133
 30
0.0
 11
1926.341664
 21
1463.613983
 31
0.0
  0
SOLID
  5
560
100
AcDbEntity
  8
XAT
100
AcDbTrace
 10
1991.585122
 20
1446.309692
 30
0.0
 11
1987.745122
 21
1446.309692
 31
0.0
 12
1989.665122
 22
1434.789692
 32
0.0
 13
1989.665122
 23
1434.789692
 33
0.0
  0
LINE
  5
561
100
AcDbEntity
  8
XAT
100
AcDbLine
 10
1989.665122
 20
1446.309692
 30
0.0
 11
1989.665122
 21
1574.389693
 31
0.0
  0
SOLID
  5
562
100
AcDbEntity
  8
XAT
100
AcDbTrace
 10
2112.130498
 20
1516.524753
 30
0.0
 11
2115.970498
 21
1516.524753
 31
0.0
 12
2114.050498
 22
1528.044753
 32
0.0
 13
2114.050498
 23
1528.044753
 33
0.0
  0
LINE
  5
563
100
AcDbEntity
  8
XAT
100
AcDbLine
 10
2114.050498
 20
1516.524753
 30
0.0
 11
2114.050498
 21
1431.398595
 31
0.0
  0
SOLID
  5
564
100
AcDbEntity
  8
XAT
100
AcDbTrace
 10
2230.744274
 20
1455.917785
 30
0.0
 11
2226.904274
 21
1455.917785
 31
0.0
 12
2228.824274
 22
1444.397785
 32
0.0
 13
2228.824274
 23
1444.397785
 33
0.0
  0
LINE
  5
565
100
AcDbEntity
  8
XAT
100
AcDbLine
 10
2228.824274
 20
1455.917785
 30
0.0
 11
2228.824274
 21
1581.171876
 31
0.0
  0
LINE
  5
566
100
AcDbEntity
  8
XAT
100
AcDbLine
 10
2228.824274
 20
1581.171876
 30
0.0
 11
2179.63551
 21
1581.171876
 31
0.0
  0
LINE
  5
567
100
AcDbEntity
  8
XAT
100
AcDbLine
 10
2179.63551
 20
1581.171876
 30
0.0
 11
2179.63551
 21
1430.833414
 31
0.0
  0
TEXT
  5
568
100
AcDbEntity
  8
XAT
100
AcDbText
 10
1982.686499
 20
1576.937062
 30
0.0
 40
9.6
  1
DN
 11
1982.686499
 21
1581.737062
 31
0.0
100
AcDbText
 73
     2
  0
TEXT
  5
569
100
AcDbEntity
  8
XAT
100
AcDbText
 10
2171.526107
 20
1416.990502
 30
0.0
 40
9.6
  1
DN
 11
2171.526107
 21
1421.790502
 31
0.0
100
AcDbText
 73
     2
  0
TEXT
  5
56A
100
AcDbEntity
  8
XAT
100
AcDbText
 10
1918.23226
 20
1450.336252
 30
0.0
 40
9.6
  1
UP
 11
1918.23226
 21
1455.136252
 31
0.0
100
AcDbText
 73
     2
  0
TEXT
  5
56B
100
AcDbEntity
  8
XAT
100
AcDbText
 10
2105.941094
 20
1418.120864
 30
0.0
 40
9.6
  1
UP
 11
2105.941094
 21
1422.920864
 31
0.0
100
AcDbText
 73
     2
  0
LINE
  5
56C
100
AcDbEntity
  8
XARCH
100
AcDbLine
 10
1909.980186
 20
1535.528386
 30
0.0
 11
1945.236522
 21
1535.528386
 31
0.0
  0
LINE
  5
56D
100
AcDbEntity
  8
XARCH
100
AcDbLine
 10
1909.980186
 20
1546.528386
 30
0.0
 11
1945.236522
 21
1546.528386
 31
0.0
  0
LINE
  5
56E
100
AcDbEntity
  8
XARCH
100
AcDbLine
 10
1909.980186
 20
1557.528386
 30
0.0
 11
1939.738814
 21
1557.528386
 31
0.0
  0
SOLID
  5
56F
100
AcDbEntity
  8
XAT
100
AcDbTrace
 10
631.057666
 20
1561.455437
 30
0.0
 11
634.897666
 21
1561.455437
 31
0.0
 12
632.977666
 22
1572.975437
 32
0.0
 13
632.977666
 23
1572.975437
 33
0.0
  0
LINE
  5
570
100
AcDbEntity
  8
XAT
100
AcDbLine
 10
632.977666
 20
1561.455437
 30
0.0
 11
632.977666
 21
1489.547108
 31
0.0
  0
TEXT
  5
571
100
AcDbEntity
  8
XAT
100
AcDbText
 10
625.318098
 20
1476.697006
 30
0.0
 40
9.6
  1
DN
 11
625.318098
 21
1481.497006
 31
0.0
100
AcDbText
 73
     2
  0
SOLID
  5
572
100
AcDbEntity
  8
XAT
100
AcDbTrace
 10
634.897666
 20
1594.009195
 30
0.0
 11
631.057666
 21
1594.009195
 31
0.0
 12
632.977666
 22
1582.489195
 32
0.0
 13
632.977666
 23
1582.489195
 33
0.0
  0
LINE
  5
573
100
AcDbEntity
  8
XAT
100
AcDbLine
 10
632.977666
 20
1594.009195
 30
0.0
 11
632.977666
 21
1607.737245
 31
0.0
  0
LINE
  5
574
100
AcDbEntity
  8
XAT
100
AcDbLine
 10
632.977666
 20
1607.737245
 30
0.0
 11
564.89292
 21
1607.737245
 31
0.0
  0
LINE
  5
575
100
AcDbEntity
  8
XAT
100
AcDbLine
 10
564.89292
 20
1607.737245
 30
0.0
 11
564.89292
 21
1498.329038
 31
0.0
  0
TEXT
  5
576
100
AcDbEntity
  8
XAT
100
AcDbText
 10
556.13521
 20
1482.91754
 30
0.0
 40
9.6
  1
UP
 11
556.13521
 21
1487.71754
 31
0.0
100
AcDbText
 73
     2
  0
LINE
  5
5CC
100
AcDbEntity
  8
0
 62
     7
100
AcDbLine
 10
2640.0
 20
0.0
 30
0.0
 11
2640.0
 21
180.0
 31
0.0
  0
LINE
  5
5CD
100
AcDbEntity
  8
0
 62
     7
100
AcDbLine
 10
3072.0
 20
180.0
 30
0.0
 11
3072.0
 21
0.0
 31
0.0
  0
TEXT
  5
5CE
100
AcDbEntity
  8
0
 62
     3
100
AcDbText
 10
2322.666667
 20
24.0
 30
0.0
 40
8.0
  1
REVISIONS
 72
     1
 11
2352.0
 21
24.0
 31
0.0
100
AcDbText
  0
TEXT
  5
5CF
100
AcDbEntity
  8
0
 62
     3
100
AcDbText
 10
2330.666667
 20
6.0
 30
0.0
 40
8.0
  1
ISSUED:
 72
     1
 11
2352.0
 21
6.0
 31
0.0
100
AcDbText
  0
TEXT
  5
5D0
100
AcDbEntity
  8
0
 62
     4
100
AcDbText
 10
2667.071429
 20
157.0
 30
0.0
 40
15.0
  1
PRINCETON CAD DOCUMENTATION
 72
     1
 11
2856.0
 21
157.0
 31
0.0
100
AcDbText
  0
TEXT
  5
5D1
100
AcDbEntity
  8
0
 62
     3
100
AcDbText
 10
2734.0
 20
90.0
 30
0.0
 40
12.0
  1
SAVAGE ENGINEERING, INC.
 72
     1
 11
2856.0
 21
90.0
 31
0.0
100
AcDbText
  0
TEXT
  5
5D2
100
AcDbEntity
  8
0
 62
     1
100
AcDbText
 10
2790.0
 20
18.0
 30
0.0
 40
6.0
  1
SCALE:
100
AcDbText
  0
TEXT
  5
5D3
100
AcDbEntity
  8
0
 62
     1
100
AcDbText
 10
2646.0
 20
18.0
 30
0.0
 40
6.0
  1
DATE:
100
AcDbText
  0
TEXT
  5
5D4
100
AcDbEntity
  8
0
 62
     1
100
AcDbText
 10
2934.0
 20
18.0
 30
0.0
 40
6.0
  1
DRAWN BY:
100
AcDbText
  0
TEXT
  5
5D5
100
AcDbEntity
  8
0
 62
     1
100
AcDbText
 10
3078.0
 20
108.0
 30
0.0
 40
6.0
  1
FLOOR
100
AcDbText
  0
POINT
  5
5D6
100
AcDbEntity
  8
0
 62
     1
100
AcDbPoint
 10
2545.620348
 20
94.220299
 30
0.0
  0
TEXT
  5
5D7
100
AcDbEntity
  8
0
 62
     1
100
AcDbText
 10
3078.0
 20
168.0
 30
0.0
 40
6.0
  1
BUILDING NAME
100
AcDbText
  0
TEXT
  5
5D8
100
AcDbEntity
  8
0
 62
     1
100
AcDbText
 10
3078.0
 20
48.0
 30
0.0
 40
6.0
  1
DRAWING NO.
100
AcDbText
  0
TEXT
  5
5D9
100
AcDbEntity
  8
0
 62
     3
100
AcDbText
 10
2778.857143
 20
72.0
 30
0.0
 40
8.0
  1
707 BLOOMFIELD AVENUE
 72
     1
 11
2856.0
 21
72.0
 31
0.0
100
AcDbText
  0
TEXT
  5
5DA
100
AcDbEntity
  8
0
 62
     3
100
AcDbText
 10
2752.190476
 20
54.0
 30
0.0
 40
8.0
  1
BLOOMFIELD, CONNECTICUT 06002
 72
     1
 11
2856.0
 21
54.0
 31
0.0
100
AcDbText
  0
LINE
  5
5DB
100
AcDbEntity
  8
0
 62
     7
100
AcDbLine
 10
3264.0
 20
180.0
 30
0.0
 11
2256.0
 21
180.0
 31
0.0
  0
LINE
  5
5DC
100
AcDbEntity
  8
0
 62
     7
100
AcDbLine
 10
3264.0
 20
60.0
 30
0.0
 11
3072.0
 21
60.0
 31
0.0
  0
LINE
  5
5DD
100
AcDbEntity
  8
0
 62
     7
100
AcDbLine
 10
3264.0
 20
120.0
 30
0.0
 11
2640.0
 21
120.0
 31
0.0
  0
LINE
  5
5DE
100
AcDbEntity
  8
0
 62
     7
100
AcDbLine
 10
3072.0
 20
30.0
 30
0.0
 11
2641.620348
 21
30.0
 31
0.0
  0
TEXT
  5
5DF
100
AcDbEntity
  8
0
 62
     3
100
AcDbText
 10
2676.666667
 20
6.0
 30
0.0
 40
8.0
  1
03/15/97
 72
     1
 11
2706.0
 21
6.0
 31
0.0
100
AcDbText
  0
LINE
  5
5E0
100
AcDbEntity
  8
0
 62
     7
100
AcDbLine
 10
2784.0
 20
0.0
 30
0.0
 11
2784.0
 21
30.0
 31
0.0
  0
LINE
  5
5E1
100
AcDbEntity
  8
0
 62
     7
100
AcDbLine
 10
2928.0
 20
0.0
 30
0.0
 11
2928.0
 21
30.0
 31
0.0
  0
LINE
  5
5E2
100
AcDbEntity
  8
0
 62
     7
100
AcDbLine
 10
2448.0
 20
0.0
 30
0.0
 11
2448.0
 21
180.0
 31
0.0
  0
LINE
  5
5E3
100
AcDbEntity
  8
0
 62
     7
100
AcDbLine
 10
2256.0
 20
0.0
 30
0.0
 11
2256.0
 21
180.0
 31
0.0
  0
LINE
  5
5E4
100
AcDbEntity
  8
0
 62
     7
100
AcDbLine
 10
2448.0
 20
18.0
 30
0.0
 11
2256.0
 21
18.0
 31
0.0
  0
LINE
  5
5E5
100
AcDbEntity
  8
0
 62
     7
100
AcDbLine
 10
2448.0
 20
36.0
 30
0.0
 11
2256.0
 21
36.0
 31
0.0
  0
LINE
  5
5E6
100
AcDbEntity
  8
0
 62
     7
100
AcDbLine
 10
2448.0
 20
54.0
 30
0.0
 11
2256.0
 21
54.0
 31
0.0
  0
LINE
  5
5E7
100
AcDbEntity
  8
0
 62
     7
100
AcDbLine
 10
2448.0
 20
72.0
 30
0.0
 11
2256.0
 21
72.0
 31
0.0
  0
LINE
  5
5E8
100
AcDbEntity
  8
0
 62
     7
100
AcDbLine
 10
2448.0
 20
90.0
 30
0.0
 11
2256.0
 21
90.0
 31
0.0
  0
LINE
  5
5E9
100
AcDbEntity
  8
0
 62
     7
100
AcDbLine
 10
2448.0
 20
108.0
 30
0.0
 11
2256.0
 21
108.0
 31
0.0
  0
LINE
  5
5EA
100
AcDbEntity
  8
0
 62
     7
100
AcDbLine
 10
2448.0
 20
126.0
 30
0.0
 11
2256.0
 21
126.0
 31
0.0
  0
LINE
  5
5EB
100
AcDbEntity
  8
0
 62
     7
100
AcDbLine
 10
2448.0
 20
144.0
 30
0.0
 11
2256.0
 21
144.0
 31
0.0
  0
LINE
  5
5EC
100
AcDbEntity
  8
0
 62
     7
100
AcDbLine
 10
2448.0
 20
162.0
 30
0.0
 11
2256.0
 21
162.0
 31
0.0
  0
TEXT
  5
5ED
100
AcDbEntity
  8
0
 62
     1
100
AcDbText
 10
2934.0
 20
18.0
 30
0.0
 40
6.0
  1
DRAWN BY:
100
AcDbText
  0
TEXT
  5
5EE
100
AcDbEntity
  8
0
 62
     3
100
AcDbText
 10
2823.238095
 20
6.0
 30
0.0
 40
8.0
  1
1/8'=1'-0"
 72
     1
 11
2856.0
 21
6.0
 31
0.0
100
AcDbText
  0
TEXT
  5
5EF
100
AcDbEntity
  8
0
 62
     3
100
AcDbText
 10
2976.761905
 20
6.0
 30
0.0
 40
8.0
  1
GRPHCM
 72
     1
 11
3000.0
 21
6.0
 31
0.0
100
AcDbText
  0
CIRCLE
  5
5F0
100
AcDbEntity
  8
0
 62
     1
100
AcDbCircle
 10
2545.620348
 20
94.220299
 30
0.0
 40
7.472894
  0
CIRCLE
  5
5F1
100
AcDbEntity
  8
0
 62
     1
100
AcDbCircle
 10
2545.620348
 20
94.220299
 30
0.0
 40
3.855136
  0
SOLID
  5
5F2
100
AcDbEntity
  8
0
 62
     1
100
AcDbTrace
 10
2584.182348
 20
80.859175
 30
0.0
 11
2579.088123
 21
86.31732
 31
0.0
 12
2624.02419
 22
71.070612
 32
0.0
 13
2619.670434
 23
76.447123
 33
0.0
  0
SOLID
  5
5F3
100
AcDbEntity
  8
0
 62
     1
100
AcDbTrace
 10
2481.121674
 20
109.558873
 30
0.0
 11
2481.121674
 21
109.558873
 31
0.0
 12
2523.848431
 22
99.652118
 32
0.0
 13
2530.016122
 23
102.344766
 33
0.0
  0
SOLID
  5
5F4
100
AcDbEntity
  8
0
 62
     1
100
AcDbTrace
 10
2464.174445
 20
109.928293
 30
0.0
 11
2472.637618
 21
115.540625
 31
0.0
 12
2468.853774
 22
108.637967
 32
0.0
 13
2477.058855
 23
114.628504
 33
0.0
  0
LINE
  5
5F5
100
AcDbEntity
  8
0
 62
     1
100
AcDbLine
 10
2477.058855
 20
114.628504
 30
0.0
 11
2466.367546
 21
117.131235
 31
0.0
  0
LINE
  5
5F6
100
AcDbEntity
  8
0
 62
     1
100
AcDbLine
 10
2468.853774
 20
108.637967
 30
0.0
 11
2477.058855
 21
114.628504
 31
0.0
  0
LINE
  5
5F7
100
AcDbEntity
  8
0
 62
     1
100
AcDbLine
 10
2464.174445
 20
109.928293
 30
0.0
 11
2472.637618
 21
115.540625
 31
0.0
  0
LINE
  5
5F8
100
AcDbEntity
  8
0
 62
     1
100
AcDbLine
 10
2474.909869
 20
107.145893
 30
0.0
 11
2464.174445
 21
109.928293
 31
0.0
  0
LWPOLYLINE
  5
5F9
100
AcDbEntity
  8
0
 62
     1
100
AcDbPolyline
 90
        5
 70
     0
 43
0.0
 10
2481.121674
 20
109.558873
 10
2527.702907
 20
94.505527
 10
2523.848431
 20
99.652118
 10
2530.016122
 20
102.344766
 10
2481.088828
 20
109.487547
  0
LWPOLYLINE
  5
600
100
AcDbEntity
  8
0
 62
     1
100
AcDbPolyline
 90
        2
 70
     0
 43
0.0
 10
2543.680843
 20
86.023794
 10
2547.609956
 20
102.628547
  0
LWPOLYLINE
  5
604
100
AcDbEntity
  8
0
 62
     1
100
AcDbPolyline
 90
        7
 70
     0
 43
0.0
 10
2579.088123
 20
86.31732
 10
2584.182348
 20
80.859175
 10
2624.02419
 20
71.070612
 10
2619.176788
 20
76.501546
 10
2625.514341
 20
79.375325
 10
2586.215894
 20
88.6543
 10
2578.769974
 20
86.377377
  0
LWPOLYLINE
  5
60D
100
AcDbEntity
  8
0
 62
     1
100
AcDbPolyline
 90
        2
 70
     0
 43
0.0
 10
2480.869216
 20
109.761581
 10
2619.670434
 20
76.447123
  0
TEXT
  5
611
100
AcDbEntity
  8
0
 62
     3
100
AcDbText
 10
3111.714286
 20
78.0
 30
0.0
 40
12.0
  1
FIRST FLOOR
 72
     1
 11
3168.0
 21
78.0
 31
0.0
100
AcDbText
  0
TEXT
  5
612
100
AcDbEntity
  8
0
 62
     3
100
AcDbText
 10
3079.142857
 20
138.0
 30
0.0
 40
12.0
  1
COMPUTER SCIENCE
 72
     1
 11
3168.0
 21
138.0
 31
0.0
100
AcDbText
  0
TEXT
  5
613
100
AcDbEntity
  8
0
 62
     3
100
AcDbText
 10
3126.0
 20
18.0
 30
0.0
 40
12.0
  1
0167-001
 72
     1
 11
3168.0
 21
18.0
 31
0.0
100
AcDbText
  0
LINE
  5
614
100
AcDbEntity
  8
0
 62
     7
100
AcDbLine
 10
3072.0
 20
150.0
 30
0.0
 11
2641.620348
 21
150.0
 31
0.0
  0
TEXT
  5
615
100
AcDbEntity
  8
0
 62
     3
100
AcDbText
 10
2751.428571
 20
129.0
 30
0.0
 40
12.0
  1
PROJECT NO. 96-1525
 72
     1
 11
2856.0
 21
129.0
 31
0.0
100
AcDbText
  0
LINE
  5
624
100
AcDbEntity
  8
FIELDCHK
100
AcDbLine
 10
1889.891982
 20
1421.363701
 30
0.0
 11
1889.891982
 21
1346.897222
 31
0.0
  0
TEXT
  5
625
100
AcDbEntity
  8
AREA
100
AcDbText
 10
1776.327575
 20
1380.360918
 30
0.0
 40
12.0
  1
86 S.F.
100
AcDbText
  0
LWPOLYLINE
  5
626
100
AcDbEntity
  8
AREA
100
AcDbPolyline
 90
        4
 70
     1
 43
0.0
 10
1749.31523
 20
1344.3521
 10
1749.23345
 20
1468.3521
 10
1849.483528
 20
1468.3521
 10
1849.31523
 20
1344.3521
  0
LINE
  5
62F
100
AcDbEntity
  8
FIELDCHK
100
AcDbLine
 10
1635.246898
 20
1248.001536
 30
0.0
 11
1635.246898
 21
1236.501536
 31
0.0
  0
LINE
  5
632
100
AcDbEntity
  8
FIELDCHK
100
AcDbLine
 10
1623.246898
 20
1248.001536
 30
0.0
 11
1623.246898
 21
1236.501536
 31
0.0
  0
LINE
  5
649
100
AcDbEntity
  8
FIELDCHK
100
AcDbLine
 10
1659.746898
 20
888.001536
 30
0.0
 11
1754.746898
 21
888.001536
 31
0.0
  0
LINE
  5
64C
100
AcDbEntity
  8
FIELDCHK
100
AcDbLine
 10
1659.746898
 20
893.001536
 30
0.0
 11
1659.746898
 21
888.001536
 31
0.0
  0
LINE
  5
64D
100
AcDbEntity
  8
FIELDCHK
100
AcDbLine
 10
1754.746898
 20
893.001536
 30
0.0
 11
1754.746898
 21
888.001536
 31
0.0
  0
LINE
  5
661
100
AcDbEntity
  8
FIELDCHK
100
AcDbLine
 10
1342.497611
 20
1248.82885
 30
0.0
 11
1283.781272
 21
1248.82885
 31
0.0
  0
LINE
  5
662
100
AcDbEntity
  8
FIELDCHK
100
AcDbLine
 10
1443.013523
 20
1168.269646
 30
0.0
 11
1348.336828
 21
1168.269646
 31
0.0
  0
LINE
  5
666
100
AcDbEntity
  8
FIELDCHK
100
AcDbLine
 10
1635.246898
 20
1236.501536
 30
0.0
 11
1623.246898
 21
1236.501536
 31
0.0
  0
LINE
  5
667
100
AcDbEntity
  8
FIELDCHK
100
AcDbLine
 10
1623.246898
 20
1236.501536
 30
0.0
 11
1538.996898
 21
1248.001536
 31
0.0
  0
LINE
  5
669
100
AcDbEntity
  8
FIELDCHK
100
AcDbLine
 10
1779.246898
 20
1236.501536
 30
0.0
 11
1791.246898
 21
1236.501536
 31
0.0
  0
LINE
  5
66A
100
AcDbEntity
  8
FIELDCHK
100
AcDbLine
 10
1791.246898
 20
1236.501536
 30
0.0
 11
1875.496898
 21
1248.001536
 31
0.0
  0
LINE
  5
66B
100
AcDbEntity
  8
FIELDCHK
100
AcDbLine
 10
1791.246898
 20
1248.001536
 30
0.0
 11
1791.246898
 21
1236.501536
 31
0.0
  0
LINE
  5
66C
100
AcDbEntity
  8
FIELDCHK
100
AcDbLine
 10
1779.246898
 20
1248.001536
 30
0.0
 11
1779.246898
 21
1236.501536
 31
0.0
  0
LWPOLYLINE
  5
673
100
AcDbEntity
  8
AREA
100
AcDbPolyline
 90
       17
 70
     1
 43
0.0
 10
1475.057002
 20
984.377165
 10
1466.44023
 20
984.377165
 10
1399.122742
 20
991.427294
 10
1394.279468
 20
991.427294
 10
1394.279468
 20
1116.905556
 10
1547.863282
 20
1200.097883
 10
1547.863282
 20
1211.286222
 10
1538.996898
 20
1239.590387
 10
1538.996898
 20
1248.001536
 10
1875.496898
 20
1248.001536
 10
1875.091283
 20
1207.894024
 10
1849.430123
 20
1207.894024
 10
1859.663488
 20
1198.875435
 10
1868.808668
 20
1198.875435
 10
2018.771553
 20
1111.510275
 10
2018.771553
 20
989.266196
 10
1939.436795
 20
984.377165
 42
-0.408259
  0
TEXT
  5
687
100
AcDbEntity
  8
AREA
100
AcDbText
 10
1673.062819
 20
1164.337755
 30
0.0
 40
12.0
  1
1161 S.F.
100
AcDbText
  0
LWPOLYLINE
  5
68A
100
AcDbEntity
  8
FIELDCHK
100
AcDbPolyline
 90
        5
 70
     0
 43
0.0
 10
652.794886
 20
1258.924879
 10
592.794886
 20
1258.924879
 10
592.794886
 20
1249.712084
 10
597.294886
 20
1249.712084
 10
597.294886
 20
1218.212084
  0
LINE
  5
69B
100
AcDbEntity
  8
FIELDCHK
100
AcDbLine
 10
524.679458
 20
1249.712084
 30
0.0
 11
476.044886
 21
1249.712084
 31
0.0
  0
LINE
  5
69C
100
AcDbEntity
  8
FIELDCHK
100
AcDbLine
 10
476.044886
 20
1249.712084
 30
0.0
 11
476.044886
 21
1258.962084
 31
0.0
  0
LINE
  5
69D
100
AcDbEntity
  8
FIELDCHK
100
AcDbLine
 10
476.044886
 20
1258.962084
 30
0.0
 11
396.044886
 21
1258.962084
 31
0.0
  0
LINE
  5
69E
100
AcDbEntity
  8
FIELDCHK
100
AcDbLine
 10
396.044886
 20
1258.962084
 30
0.0
 11
396.044886
 21
1248.962084
 31
0.0
  0
LINE
  5
69F
100
AcDbEntity
  8
FIELDCHK
100
AcDbLine
 10
396.044886
 20
1248.962084
 30
0.0
 11
382.044886
 21
1248.962084
 31
0.0
  0
LINE
  5
6A0
100
AcDbEntity
  8
FIELDCHK
100
AcDbLine
 10
382.044886
 20
1248.962084
 30
0.0
 11
382.044886
 21
1036.462084
 31
0.0
  0
LINE
  5
6A1
100
AcDbEntity
  8
FIELDCHK
100
AcDbLine
 10
382.044886
 20
1036.462084
 30
0.0
 11
394.544886
 21
1036.462084
 31
0.0
  0
LINE
  5
6A2
100
AcDbEntity
  8
FIELDCHK
100
AcDbLine
 10
394.544886
 20
1036.462084
 30
0.0
 11
394.544886
 21
1010.962084
 31
0.0
  0
LINE
  5
6A3
100
AcDbEntity
  8
FIELDCHK
100
AcDbLine
 10
394.544886
 20
1010.962084
 30
0.0
 11
382.044886
 21
1010.962084
 31
0.0
  0
LINE
  5
6A4
100
AcDbEntity
  8
FIELDCHK
100
AcDbLine
 10
382.044886
 20
1010.962084
 30
0.0
 11
382.044886
 21
891.462084
 31
0.0
  0
LINE
  5
6A5
100
AcDbEntity
  8
FIELDCHK
100
AcDbLine
 10
384.352226
 20
879.939
 30
0.0
 11
393.544886
 21
879.939
 31
0.0
  0
LINE
  5
6A9
100
AcDbEntity
  8
FIELDCHK
100
AcDbLine
 10
468.108296
 20
879.939
 30
0.0
 11
465.544886
 21
879.939
 31
0.0
  0
LINE
  5
6AD
100
AcDbEntity
  8
FIELDCHK
100
AcDbLine
 10
470.294886
 20
891.462084
 30
0.0
 11
465.544886
 21
891.462084
 31
0.0
  0
LINE
  5
6AE
100
AcDbEntity
  8
FIELDCHK
100
AcDbLine
 10
382.044886
 20
891.462084
 30
0.0
 11
393.544886
 21
891.462084
 31
0.0
  0
LINE
  5
6AF
100
AcDbEntity
  8
FIELDCHK
100
AcDbLine
 10
393.544886
 20
891.462084
 30
0.0
 11
393.544886
 21
879.939
 31
0.0
  0
LINE
  5
6B0
100
AcDbEntity
  8
FIELDCHK
100
AcDbLine
 10
465.544886
 20
891.462084
 30
0.0
 11
465.544886
 21
879.939
 31
0.0
  0
LINE
  5
6B1
100
AcDbEntity
  8
FIELDCHK
100
AcDbLine
 10
470.294886
 20
891.462084
 30
0.0
 11
470.294886
 21
1142.962084
 31
0.0
  0
LINE
  5
6BB
100
AcDbEntity
  8
FIELDCHK
100
AcDbLine
 10
597.294886
 20
1218.212084
 30
0.0
 11
470.294886
 21
1142.962084
 31
0.0
  0
LINE
  5
6BD
100
AcDbEntity
  8
FIELDCHK
100
AcDbLine
 10
638.608265
 20
1234.04645
 30
0.0
 11
477.732021
 21
1138.724108
 31
0.0
  0
LINE
  5
6BF
100
AcDbEntity
  8
FIELDCHK
100
AcDbLine
 10
477.732021
 20
883.976854
 30
0.0
 11
477.732021
 21
1138.724108
 31
0.0
  0
LWPOLYLINE
  5
6C8
100
AcDbEntity
  8
AREA
100
AcDbPolyline
 90
       10
 70
     1
 43
0.0
 10
894.351441
 20
1243.866457
 10
638.608265
 20
1234.04645
 10
477.732021
 20
1138.724108
 10
477.732021
 20
883.976854
 10
624.719259
 20
796.829846
 10
894.276294
 20
785.098605
 10
919.172531
 20
869.491604
 10
929.574628
 20
869.243373
 10
929.574628
 20
1158.571055
 10
919.191549
 20
1159.592505
  0
TEXT
  5
6D5
100
AcDbEntity
  8
AREA
100
AcDbText
 10
512.547879
 20
986.611162
 30
0.0
 40
12.0
  1
1272 S.F.
100
AcDbText
  0
ENDSEC
  0
SECTION
  2
OBJECTS
  0
DICTIONARY
  5
C
100
AcDbDictionary
  3
ACAD_GROUP
350
D
  3
ACAD_MLINESTYLE
350
E
  0
DICTIONARY
  5
D
102
{ACAD_REACTORS
330
C
102
}
100
AcDbDictionary
  0
DICTIONARY
  5
E
102
{ACAD_REACTORS
330
C
102
}
100
AcDbDictionary
  3
STANDARD
350
1B
  0
MLINESTYLE
  5
1B
102
{ACAD_REACTORS
330
E
102
}
100
AcDbMlineStyle
  2
STANDARD
 70
     0
  3

 62
     0
 51
90.0
 52
90.0
 71
     2
 49
0.5
 62
   256
  6
BYLAYER
 49
-0.5
 62
   256
  6
BYLAYER
  0
ENDSEC
  0
EOF
